» » »

Ice Nine Kills, What I Really Learned In Study Hall Tabs (ver.3)

Artists:  A B C D E F G H I J K L M N O P Q R S T U V W X Y Z # 

What I Really Learned In Study Hall Tabs (ver.3)

Ice Nine Kills Tabs
 Rating:
4/5 (4 votes)
What I Really Learned In Study Hall lessons Tabs too difficult? Try these video lessons and learn fast
1
                -------------------------------------------------------------------------------
                            ice nine kills - what i really learned in study hall
-------------------------------------------------------------------------------
this is 99.9 % right this is my first tab so rate it! this sounds alot better on an 
listen to the song to get the struming right.



Tuning:standard
   (intro)                             (strum)
e|--------------------------------------------------2-0----------------------|
B|---------------------------------------------------------------------------|
G|----------3---------5-----3----------x-x-x-x-------------------------------|
D|--4-------4---------6-----4-------2--x-x-x-x-2-2---------------------------|
A|--2-------4---------6-----4-------2--x-x-x-x-2-2---------------------------|
E|----------2---------4-----2------------------------------------------------|

e|----------------------------------2222222222-x-----------------------------|
B|---------------------------------------------x-----------------------------|
G|----------3--------5-----3-------------------x-----------------------------|
D|--4-------4--------6-----4--------2222222222-x-----------------------------|
A|--2-------4--------6-----4--------2222222222-x-----------------------------|
E|----------2--------4-----2-------------------x-----------------------------|

e|--------------------------------------------------2-0----------------------|
B|---------------------------------------------------------------------------|
G|----------3---------5-----3----------x-x-x-x-------------------------------|
D|--4-------4---------6-----4-------2--x-x-x-x-2-2---------------------------|
A|--2-------4---------6-----4-------2--x-x-x-x-2-2---------------------------|
E|----------2---------4-----2------------------------------------------------|

e|--------------------------------------------------2-0----------------------|
B|---------------------------------------------------------------------------|
G|----------3---------5-----3----------x-x-x-x-------------------------------|
D|--4-------4---------6-----4-------2--x-x-x-x-2-2---------------------------|
A|--2-------4---------6-----4-------2--x-x-x-x-2-2---------------------------|
E|----------2---------4-----2------------------------------------------------|
    (part1)
e|---------------------------------------------------------------------------|
B|---------------------------------------------------------------------------|
G|--------------3--------6-------3-------------------------------------------|
D|---2----------4--------6-------4-------------------------------------------|
A|---2----------4--------4-------4-------------------------------------------|
E|--------------2----------------2-------------------------------------------|
(part2)
e|---------------------------------------------------------------------------|
B|---------------------------------------------------------------------------|
G|--------------3-3xx33------6-6xx66-------3-3xx3333-------------------------|
D|---xx4-4xx44--4-4xx44------6-6xx66-------2-2xx2222-------------------------|
A|---xx2-2xx22--4-4xx44------4-4xx44-------2-2xx2222-------------------------|
E|--------------2-2xx22------2-2xx22-----------------------------------------|
                                                            ^ repeat(2x)
e|--------------------------------------------------2-0----------------------|
B|---------------------------------------------------------------------------|
G|----------3---------5-----3----------x-x-x-x-------------------------------|
D|--4-------4---------6-----4-------2--x-x-x-x-2-2---------------------------|
A|--2-------4---------6-----4-------2--x-x-x-x-2-2---------------------------|
E|----------2---------4-----2------------------------------------------------|

e|----------------------------------2222222222-x-----------------------------|
B|---------------------------------------------x-----------------------------|
G|----------3--------5-----3-------------------x-----------------------------|
D|--4-------4--------6-----4--------2222222222-x-----------------------------|
A|--2-------4--------6-----4--------2222222222-x-----------------------------|
E|----------2--------4-----2-------------------x-----------------------------|
(part3)  (listen to song for struming)
e|-----------------------------------------------------------------------------|
B|-----------------------------------------------------------------------------|
G|--8------10------4-----3-----------------------------------------------------|
D|--8------10------4-----4-----------------------------------------------------|
A|--6------8-------2-----4-----------------------------------------------------|
E|-----------------------2-----------------------------------------------------|
             -
e ----------------------------------------------------------------------------|
B-----------------------------------------------------------------------------|
G------4---------3------------------------------------------------------------|
D-------4--------4------------------------------------------------------------|
A---2------------4------------------------------------------------------------|
E--0-------------2------------------------------------------------------------|
(part4)
e|---------------------------------------------------------------------------|
B|---------------------------------------------------------------------------|
G|--------------3-3xx33------6-6xx66-------3-3xx3333-------------------------|
D|---xx4-4xx44--4-4xx44------6-6xx66-------2-2xx2222-------------------------|
A|---xx2-2xx22--4-4xx44------4-4xx44-------2-2xx2222-------------------------|
E|--------------2-2xx22------2-2xx22-----------------------------------------|
                                                            ^ repeat(2x)


************************************

| /   slide up
| \   slide down
| h   hammer-on
| p   pull-off
| ~   vibrato
| +   harmonic
| x   Mute note
| b   Bend
| pb  Pre-bend
| br  Bend release
| pbr Pre-bend release
| brb Bend release bend

************************************
            
Submit corrections

comments powered by Disqus
↑ Back to top | Ice Nine Kills Tabs for What I Really Learned In Study Hall. Lyrics for acoustic guitar and electric guitar. 1 Tablatures and chords are parodies/interpretations of the original songs. You may use it for private study, scholarship, research or language learning purposes only