» » »

Last Words Tabs (ver.1)

Artists:  A B C D E F G H I J K L M N O P Q R S T U V W X Y Z # 

Last Words Tabs (ver.1)

Ice Nine Kills
Rating:
5/5 (8 votes)

Hard to play? Try these video lessons and learn fast.
                (Intro)

Here's the intro to Last Words by Ice Nine Kills, I know somebody posted and said they
somebody to tab it out, and nobody has yet, so here's the intro.

AND this is my first tab, so criticism will be taken well :)

If there are any corrections needed, comments, compliments, critisism, etc, contact me
AIM - Chang1ngoFTimes

Enjoy!
-Nate

E------------------------------------------------------------------|
B----6-6-6-----------------9-9-9-----------------------------------|
G------------8-8-8---6-6-----------5-5-5---6-6---------------------|
D------------------------------------------------------------------|
A------------------------------------------------------------------|
E------------------------------------------------------------------|

E------------------------------------------------------------------|
B----6-6-6---------------------------------------------------------|
G------------8-8-8---6-6---5-5-5---6-6-6---8-8---------------------|
D------------------------------------------------------------------|
A------------------------------------------------------------------|
E------------------------------------------------------------------|

E------------------------------------------------------------------|
B----6-6-6-----------------9-9-9---11-11-11---7-7-7----------------|
G------------8-8-8---6-6-------------------------------------------|
D------------------------------------------------------------------|
A------------------------------------------------------------------|
E------------------------------------------------------------------|

E------------------------------------------------------------------|
B----6-6-6---------------------------------------------------------|
G------------8-8-8---6-6----5-5-5---6-6-6-6------------------------|
D------------------------------------------------------------------|
A------------------------------------------------------------------|
E------------------------------------------------------------------|

**THIS REPEATS, it sounds like it's being picked two-times faster than the first time
but it's really just the bass drums that make it sound faster. If you're playing the
alone with no one who plays the drums, i'd suggest to play everything 2x faster than 
I tabbed out for you the second time around, it sounds pretty good.

And I'm pretty sure this is all right, not sure how many times the sixth fret is played
the end on the G string, but it's either four times, or it's just played once, but held
I think it sounds better if it's played four times.

Again, enjoy!

-Nate T
            
Hard to play? Try these video lessons and learn fast. | Correct




comments powered by Disqus
↑ Back to top | Tablatures and chords are parodies/interpretations of the original songs. You may use it for private study, scholarship, research or language learning purposes only