» » »

Ice Nine Kills, Last Words Tabs (ver.2)

Artists:  A B C D E F G H I J K L M N O P Q R S T U V W X Y Z # 

Last Words Tabs (ver.2)

Ice Nine Kills Tabs
 Rating:
4/5 (4 votes)
Last Words lessons Tabs too difficult? Try these video lessons and learn fast
                Last Words, The easy (but Correct) way in e- flat

e|------------------5-5-5---------------------------------------------|
B|--7-7-7-5-5-5-3-3-------2-2-2-3-3-7-7-7-5-5-5-3-3-3-2-2-2-3-3-3-2-2-|
G|--------------------------------------------------------------------|
D|--------------------------------------------------------------------|
A|--------------------------------------------------------------------|
E|--------------------------------------------------------------------|

e|------------------5-5-5-7-7-7-------------------------------------|
B|--7-7-7-5-5-5-3-3-------------8-8---------------------------------|
G|------------------------------------------------------------------|
D|------------------------------------------------------------------|
A|------------------------------------------------------------------|
E|------------------------------------------------------------------|

		Repeat the first line, the second guitar is harmonizing, it sounds like a 5th

				|verse| (second guitar plays part of intro)
e|-------------------------------------------------------------------|
B|-------------------------------------------------------------------|
G|-------------------------------------------------------------------|
D|------------------------7-7-777------------------------------------|
A|--9-9-999----5-5-555----5-5-555----4-4-4-5-5-5-4-4-----------------|
E|--7-7-777----3-3-333---------------2-2-2-3-3-3-2-2-----------------|

				|Chorus|
e|------------------------------------||----------------------------------|
B|------------------------------------||----------------------------------|
G|------------------------------------||----------------------------------|
D|------------------7-7-7-7-----------||----------------------------------|
A|--9-9-9-9-5-5-5-5-5-5-5-5-4-4-5-4---||--5------7------------------------|
E|--7-7-7-7-3-3-3-3---------2-2-3-2---||--3------5------------------------|


				|verse 2|
e|14-14-14----------------15-15-15----------------14-14-14---------------------------------------|
B|---------15-15-15----------------15-15-15----------------15-15-15-------14-14-14-15-15-15-14-14|
G|------------------14-14-------------------14-14-------------------14-14------------------------|
D|-----------------------------------------------------------------------------------------------|
A|-----------------------------------------------------------------------------------------------|
E|-----------------------------------------------------------------------------------------------|

(same as verse one after that.)


gtr II (After "He says...")
e|-10----10----10----10----12----12----12----12----10----10----10----10----9----9----9-10-9----|
B|----10----10----10----10----10----10----10----10----10----10----10----10---10---10--------10-|
G|---------------------------------------------------------------------------------------------|
D|---------------------------------------------------------------------------------------------|
A|---------------------------------------------------------------------------------------------|
E|---------------------------------------------------------------------------------------------|

			|chorus|

	|breakdown/solo| (I don't quite have this part down)
e|---------------------------------------------------|
B|---------------------------------------------------|
G|---------------------------------------------------|
D|---------------------------------------------------|
A|--9-9----8-8----7-7------5-5-5-4-4-4-4-------------|
E|--7-7----6-6----5-5------3-3-3-2-2-2-2-------------|

 use your imagination for the rest, most of the parts are repeated. I just got agitated 
            
Submit corrections

comments powered by Disqus
↑ Back to top | Ice Nine Kills Tabs for Last Words. Lyrics for acoustic guitar and electric guitar. Tablatures and chords are parodies/interpretations of the original songs. You may use it for private study, scholarship, research or language learning purposes only