» » »

Cinder Blocks And Thank You Knots Tabs (ver.2)

Artists:  A B C D E F G H I J K L M N O P Q R S T U V W X Y Z # 

Cinder Blocks And Thank You Knots Tabs (ver.2)

Ice Nine Kills
Rating:
5/5 (2 votes)

Hard to play? Try these video lessons and learn fast.
                (Intro)
-------------------------------------------------------------------------------
                            Cinder Blocks And Thank You Knots - Ice Nine Kills
-------------------------------------------------------------------------------

Tuning: Standard

Only the intro for now, i'll do the whole song some other time, i'm too lazy right now

e|----------------------------------------------------------------------------|
B|------4----------------------4----------------------4-----------------------|
G|---------6--4--6--4--------------6--4--6-4--------------6---4---3---4-------|
D|----4---------------------4----------------------4--------------------------|
A|----------------------------------------------------------------------------|
E|----------------------------------------------------------------------------|

e|---------------------------------------------------------------------------|
B|---------------------------------------------------------------------------|
G|----3---4---3--------------------------------------------------------------|
D|----------------4----------------------------------------------------------|
A|---------------------------------------------------------------------------|
E|---------------------------------------------------------------------------|
            
Hard to play? Try these video lessons and learn fast. | Correct




comments powered by Disqus
↑ Back to top | Tablatures and chords are parodies/interpretations of the original songs. You may use it for private study, scholarship, research or language learning purposes only