» » »

Ice Nine Kills, Cinder Blocks And Thank You Knots Tabs (ver.3)

Artists:  A B C D E F G H I J K L M N O P Q R S T U V W X Y Z # 

Cinder Blocks And Thank You Knots Tabs (ver.3)

Ice Nine Kills Tabs
Rating:
0/5 (0 votes)
Cinder Blocks And Thank You Knots lessons Tabs too difficult? Try these video lessons and learn fast
                Please rate and/or leave your feedback.

Band: Ice Nine Kills
Tuning: Drop D

Intro (I think this is actually played by three guitars but I'm sure you can do it in one)

e||------------------------------------------||
B||-----4-2---2-------------4-2---2----------||
G||---------4---4~--4-----------4---4~--4----||
D||---4------------4-4-----4-----------4-4---||
A||------------------------------------------||
D||-----------2-------------------1----------||

e||------------------------------------------||
B||-----4-2------------------------5--4------||
G||---------4-3-4~--4-----3h4p3--4--4--6-4---||
D||---4------------4-4----------4-4--4-------||
A||------------------------------------------||
D||-----------6-----------------4------------||

Please take me back
To the way things were before
i swear to god, we're causing 
Permanent damage or more

e||-------------------------------||
B||-------------------------------||
G||----4------4------4------4-----||
D||---4-4~---4-4----4-4~---4-4~---||
A||---2~------------1~------------||
D||---2~------------1~------------||

As I try to fight these urges inside

e||-------------------------------||
B||-------------------------------||
G||----4------4------4------4-----||
D||---4-4~---4-4----4-4~---4-4~---||
A||---6~------------4~------------||
D||---6~------------4~------------||

Keep drinking, till we can't recall
(But i can't stop)
You so sexy when you're out of control
(Cause i want you)

e||-------------------------------||
B||-------------------------------||
G||----4------4------4------4-----||
D||---4-4~---4-4----4-4~---4-4~---||
A||---2~------------1~------------||
D||---2~------------1~------------||

So give up and give in
Cause I know you want
Me to take your breath away

e||-----------------------------------------------||
B||-----------------------------------------------||
G||------7----------------------------------------||
D||---66---66-9-66-8-66-6-66-6h8--44---44---42~---||
A||---66---66---66---66---66------44---44---42~---||
D||---66---66---66---66---66------44---44---42~---||

Let's get drunk and disguise
Our wasted miserable lives
Made better from lack of trust
And excess lust combined
When we're together

e||--------------------------------------------||
B||--------------------------------------------||
G||---4444444-------------4444444--------------||
D||---44444444--22222224--44444444--22222222---||
A||---22222224--22222224--22222224--22222222---||
D||----------4--22222224---------4--22222222---||

Cause I burn every bridge I cross
And I'd feel better jumping off
When you can't see the signs
There's no chance that we could survive

e||----------------------------||
B||----------------------------||
G||----------------------------||
D||---66666666--44444444--2~---||
A||---66666666--44444444--2~---||
D||---66666666--44444444--2~---||
      ........  ........

(survive)

e||------------------------------------------||
B||-----4-2---2-------------4-2---2----------||
G||---------4---4~--4-----------4---4~--4----||
D||---4------------4-4-----4-----------4-4---||
A||------------------------------------------||
D||-----------2-------------------1----------||

e||--------------------------------------------||
B||----------------------------------5--4------||
G||------7-------------------------4--4--6-4---||
D||---66---66-9-66-8-66-6-66-6h8--4-4--4-------||
A||---66---66---66---66---66------4------------||
D||---66---66---66---66---66------4------------||

This was over before it began
I can't live like this when you don't understand
That you're queen of lust

e||---------------------------------------------------||
B||---------------------------------------------------||
G||---------------------------------------------------||
D||---22222-22222-11111-11111-66666-66666-444-44444---||
A||---22222-22222-11111-11111-66666-66666-444-44444---||
D||---22222-22222-11111-11111-66666-66666-444-44444---||

and I stormed your castle
But it was empty and cold
And its decaying like our insides
I hope we fall asleep
For the last time tonight

e||---------------------------------------------------||
B||---------------------------------------------------||
G||---------------------------------------------------||
D||---222~--------111~--------66666666666-44-44-42~---||
A||---222~--------111~--------66666666666-44-44-42~---||
D||---222~--------111~--------66666666666-44-44-42~---||

Lets get drunk and disguise
our wasted miserable lives
made better from lack of trust
and excess lust combined
when were together

e||--------------------------------------------||
B||--------------------------------------------||
G||---4444444-------------4444444--------------||
D||---44444444--22222224--44444444--22222222---||
A||---22222224--22222224--22222224--22222222---||
D||----------4--22222224---------4--22222222---||

Cause I burn every bridge I cross
and I'd feel better
jumping off
when you don't see the signs, that theres
no chance that
we can survive

e||----------------------------||
B||----------------------------||
G||----------------------------||
D||---66666666--44444444--2~---||
A||---66666666--44444444--2~---||
D||---66666666--44444444--2~---||
      ........  ........

(solo - I can't figure this out. sorry.)

I like you more when you're laid on the floor
Passed out when I'm not
There's not a single good thought in my body

e||--------------------------------------------||
B||--------------------------------------------||
G||---------------------------------44444444---||
D||---22222222--44444444--66666666--44444444---||
A||---22222222--44444444--66666666--22222222---||
D||---22222222--44444444--66666666-------------||
      ........  ........  ........  ........

And have you ever been lonely enough
To think that this wasn't only just luck?
So we'll feel better when we 
Soak our skulls with alcohol
To forget about this night

e||---------------------------------||
B||---------------------------------||
G||---------------------------444---||
D||---22222222--66664444--2~--------||
A||---22222222--66664444--2~--222---||
D||---22222222--66664444--2~--------||
      ........  ........  

Lets get drunk and disguise
our wasted miserable lives
made better from lack of trust
and excess lust combined
when were together

e||--------------------------------------------||
B||--------------------------------------------||
G||---4444444-------------4444444--------------||
D||---44444444--22222224--44444444--22222222---||
A||---22222224--22222224--22222224--22222222---||
D||----------4--22222224---------4--22222222---||

Cause I burn every bridge I cross
and I'd feel better
jumping off
when you don't see the signs, that theres
no chance that
we can survive

e||-----------------------------||
B||-----------------------------||
G||-----------------------------||
D||---6666---------4444----2~---||
A||---6666-/slide/-4444----2~---||
D||---6666---------4444----2~---||

(survive)

e||------------------------------------------||
B||-----4-2---2-------------4-2---2----------||
G||---------4---4~--4-----------4---4~--4----||
D||---4------------4-4-----4-----------4-4---||
A||------------------------------------------||
D||-----------2-------------------1----------||

e||------------------------------------------||
B||-----4-2------------------------5--4------||
G||---------4-3-4~--4-----3h4p3--4--4--6-4---||
D||---4------------4-4----------4-4--4-------||
A||------------------------------------------||
D||-----------6-----------------4------------||

This place gets so old
These days grow so cold
And you've got no one
No one who knows you

e||------------------------------------||
B||-----4-2---2-----------4-2---2-4~---||
G||---------4---4~------------4--------||
D||---4-----------------4--------------||
A||------------------------------------||
D||-----------2-----------------1------||

e||-------------------------------||
B||-----4-2-----------------------||
G||---------4-3-4~-----3h4p3------||
D||---4----------------------4~---||
A||-------------------------------||
D||-----------6--------------4----||

This place gets so old
These days grow so cold
And you've got no one
No one who knows you

e||------------------------------------||
B||-----4-2---2-----------4-2---2------||
G||---------4---4~------------4---4~---||
D||---4-----------------4--------------||
A||------------------------------------||
D||-----------2-----------------1------||

e||-------------------------------||
B||-----4-2-----------------------||
G||---------4-3-4~-----3h4p3------||
D||---4----------------------4~---||
A||-------------------------------||
D||-----------6--------------4----||

When this is over

e||------------------------------------||
B||-----4-2---2-----------4-2---2------||
G||---------4---4~------------4---4~---||
D||---4-----------------4--------------||
A||------------------------------------||
D||-----------2-----------------1------||

e||-------------------------------||
B||-----4-2-----------------------||
G||---------4-3-4~-----3h4p3------||
D||---4----------------------4~---||
A||-------------------------------||
D||-----------6--------------4----||

End with:

e||------------------||
B||-----4-2---2------||
G||---------4---4~---||
D||---4--------------||
A||------------------||
D||------------------||

-- END -
            

comments powered by Disqus
↑ Back to top | Ice Nine Kills Tabs for Cinder Blocks And Thank You Knots. Lyrics for acoustic guitar and electric guitar. Tablatures and chords are parodies/interpretations of the original songs. You may use it for private study, scholarship, research or language learning purposes only