» » »

Hyde, Angel's Tale Tabs (ver.1)

Artists:  A B C D E F G H I J K L M N O P Q R S T U V W X Y Z # 

Angel's Tale Tabs (ver.1)

Hyde Tabs
 Rating:
4/5 (4 votes)
Angel's Tale lessons Tabs too difficult? Try these video lessons and learn fast
1
                (Intro)
 Angel’s Tale Tab

Disclaimer:
find this tab who don't have Guitar tab pro.)


1 -------------------------|
2 ------------0------------|
3 ---------------0---------|
4 -------4---------0-------|
5 ----5--------------------|
6 -3------------------ x 2-|

1 ---------------------|
2 -----------0---------|
3 -------0------0------|
4 ----2------------0---|
5 –0-------------------|
6 ---------------------|

1 ---------------------|
2 ---------1-----------|
3 ------0-----0--------|
4 ---2-----------2-----|
5 -0-------------------|
6 ---------------------|

(Repeat 3 tabs once)


----------------------------------------


1 --------------------|
2 ----------0---------|
3 -------------0------|
4 -------4-------0----|
5 ----5---------------|
6 -3------------------| x 2

---------------------------------------


1 -------------------|
2 -------------------|
3 --------2-0--------|
4 ------0-----4------|
5 ----0--------------|
6 –2-----------------| x 2

-----------------------------------

1 ------------------|
2 ----------3-------|
3 -------0----0-----|
4 -----4--------0---|
5 ------------------|
6 –0----------------| x 2

---------------------------------------

1 -------------------|
2 --------1----------|
3 ------0—---0-------|
4 ----4-------4------|
5 –3-----------------|
6 -------------------|

1 ------------------|
2 --------1---------|
3 ------0—--0-------|
4 ----4-------0-----|
5 –3----------------|
6 ------------------|

-------------------------------

1 -----------------|
2 --------3--------|
3 ------0—--0------|
4 ----0-------0----|
5 –2---------------|
6 -----------------|

1 -------------------|
2 -----------1-------|
3 --------0----0-----|
4 ----0-----------0--|
5 -------------------|
6 -3-----------------|

----------------------------------

1 -------------------|
2 --------1----------|
3 ------0—--0--------|
4 ----4-------4------|
5 –0-----------------|
6 -------------------|

1 -------------------|
2 --------1----------|
3 ------0—--0--------|
4 ----4-------0------|
5 –3-----------------|
6 -------------------|

-------------------------------------

1 --------------------|
2 --------3-----------|
3 ------0--------0----|
4 ----4-------4-------|
5 –3------------------|
6 --------------------|

1 ---------------------|
2 --------3------------|
3 ------0—0------------|
4 ----4-------4--------|
5 –3-------------------|
6 ---------------------|

--------------------------------------
            
Submit corrections

comments powered by Disqus
↑ Back to top | Hyde Tabs for Angel's Tale. Lyrics for acoustic guitar and electric guitar. 1 Tablatures and chords are parodies/interpretations of the original songs. You may use it for private study, scholarship, research or language learning purposes only