» » »

Season's Call Tabs (ver.1)

Artists:  A B C D E F G H I J K L M N O P Q R S T U V W X Y Z # 

Season's Call Tabs (ver.1)

Hyde
Rating:
0/5 (0 votes)

Hard to play? Try these video lessons and learn fast.
                                   hyde's part

beginning
e-----------------------------------------------------------------------|
b-----------------------------------------------------------------------|
g-----------------------------------------------------------------------|
d------10--10---3--2--2-2-2---------------------------------------------|
a------10--10---3--2--2-2-2---------------------------------------------|
e------8---8----1--0--0-0-0---------------------------------------------|

repeat, not that correct, only little mistake

verse

e---------------------------------------------------------|
b---------------------------------------------------------|
g---------------------------------------------------------|
d---8---3---10--------------------------------------------|
a---8---3--10---------------------------------------------|
e---6---1--8----------------------------------------------|

listen to the song first and than do this part

part 2(verse)

e------------------------------------------------|
b------------------------------------------------|
g------------------------------------------------|
d--10--10---10---10------3---2---2--2------------|
a--10--10--10----10------3---2---2--2------------|
e--8---8---8-----8-------1---0---0--0------------|

play with the song it's right but go along with the song more


"how much many cuts should i repeat?"

e-----------------------------------------------|
b-------6-5----6-5------------------------------|
g----------5-------5----------------------------|
d-----------------------------------------------|
a-----------------------------------------------|
e-----------------------------------------------|


i know how to play the rest but i didn't have the time to put the rest so if someone can 
it off do it, you'll probably do beter than mine
            
Hard to play? Try these video lessons and learn fast. | Correct




comments powered by Disqus
↑ Back to top | Tablatures and chords are parodies/interpretations of the original songs. You may use it for private study, scholarship, research or language learning purposes only