» » »

Hyde, Angel's Tale Tabs (ver.2)

Artists:  A B C D E F G H I J K L M N O P Q R S T U V W X Y Z # 

Angel's Tale Tabs (ver.2)

Hyde Tabs
 Rating:
4/5 (4 votes)
Angel's Tale lessons Tabs too difficult? Try these video lessons and learn fast
                Tuning: Standard (E A D G B e)


e|------------------------------------------------------------------------||
B|-----------0-----------------0-----------------0-----------------1------||
G|--------------0-----------------0-----------0-----0-----------0-----0---||
D|--------4--------4--------4--------4-----2-----------2-----2-----------2||
A|-----5-----------------5--------------0-----------------3---------------||
E|--3-----------------3---------------------------------------------------||


e|------------------------------------------------------------------------||
B|-----------0-----------------0-----------------0-----------------1------||
G|--------------0-----------------0-----------0-----0-----------0-----0---||
D|--------4--------4--------4--------4-----2-----------2-----2-----------2||
A|-----5-----------------5--------------0-----------------3---------------||
E|--3-----------------3---------------------------------------------------||


e|------------------------------------------------------------------------||
B|-----------0-----------------0------------------------------------------||
G|--------------0-----------------0--------------2--0--2-----------2--0---||
D|--------4--------4--------4--------4--------0-----------------0--------0||
A|-----5-----------------5-----------------0-----------------0------------||
E|--3-----------------3-----------------2-----------------2---------------||


e|------------------------------------------------------------------------||
B|-----------3-----------------3-----------------1-----------------1------||
G|--------0-----0-----------0-----0-----------0-----0-----------0-----0---||
D|-----4-----------4-----4-----------4-----2-----------2-----2-----------2||
A|--2-----------------2-----------------3-----------------3---------------||
E|------------------------------------------------------------------------||


e|------------------------------------------------------------------------||
B|-----------3-----------------3-----------------3-----------------3------||
G|--------0-----0-----------0-----0-----------0--------0--------0-----0---||
D|-----4-----------4-----4-----------4-----2--------2--------2-----------2||
A|--2-----------------2-----------------3-----------------3---------------||
E|------------------------------------------------------------------------||


e|------------------------------------------------------------------------||
B|-----------3-----------------3-----------------1-----------------1------||
G|--------0-----0-----------0-----0-----------0-----0-----------0-----0---||
D|-----4-----------4-----4-----------4-----2-----------2-----2-----------2||
A|--2-----------------2-----------------0-----------------3---------------||
E|------------------------------------------------------------------------||


e|------------------------------------------------------------------------||
B|-----------0-----------------0-----------------0-----------------0------||
G|--------------0-----------------0-----------------0-----------------0---||
D|--------4--------4--------4--------4--------4--------4--------4--------4||
A|-----5-----------------5-----------------5-----------------5------------||
E|--3-----------------3-----------------3-----------------3---------------||


e|------------------------------------------------------------------------||
B|-----------0-----------------0------------------------------------------||
G|--------------0-----------------0--------------2--0--2-----------2--0---||
D|--------4--------4--------4--------4--------0-----------------0--------0||
A|-----5-----------------5-----------------0-----------------0------------||
E|--3-----------------3-----------------2-----------------2---------------||


e|------------------------------------------------------------------------||
B|-----------3-----------------3-----------------1-----------------1------||
G|--------0-----0-----------0-----0-----------0-----0-----------0-----0---||
D|-----4-----------4-----4-----------4-----2-----------2-----2-----------2||
A|--2-----------------2-----------------3-----------------3---------------||
E|------------------------------------------------------------------------||


e|------------------------------------------------------------------------||
B|-----------3-----------------3-----------------3-----------------3------||
G|--------0-----0-----------0-----0-----------0--------0--------0-----0---||
D|-----4-----------4-----4-----------4-----2--------2--------2-----------2||
A|--2-----------------2-----------------3-----------------3---------------||
E|------------------------------------------------------------------------||


e|------------------------------------------------------------------------||
B|-----------3-----------------3-----------------1-----------------1------||
G|--------0-----0-----------0-----0-----------0-----0-----------0-----0---||
D|-----4-----------4-----4-----------4-----2-----------2-----2-----------2||
A|--2-----------------2-----------------0-----------------3---------------||
E|------------------------------------------------------------------------||


e|------------------------------------------------------------------------||
B|-----------0-----------------0-----------------0-----------------0------||
G|--------------0-----------------0-----------------0-----------------0---||
D|--------4--------4--------4--------4--------4--------4--------4--------4||
A|-----5-----------------5-----------------5-----------------5------------||
E|--3-----------------3-----------------3-----------------3---------------||


e|----------------------------------||
B|----------5----------------4------||
G|-------------0----------------0---||
D|-----2/5--------4-----2/4--------4||
A|--3----------------2--------------||
E|----------------------------------||


e|------------------------------------------------------------------------||
B|-----------3-----------------3------------------------------------------||
G|--------------0-----------------0--------------3-----------------3------||
D|--------4--------4--------4--------4--------0-----0-----------0-----0---||
A|-----2-----------------2-----------------4-----------4-----4-----------4||
E|--0-----------------0-----------------2-----------------2---------------||


e|------------------------------------------------------------------------||
B|-----------3-----------------4-----------------0-----------------0------||
G|--------0-----0-----------4-----4-----------0-----0-----------0-----0---||
D|-----2-----------2-----4-----------4-----2-----------2-----2-----------2||
A|--3-----------------2-----------------3-----------------3---------------||
E|------------------------------------------------------------------------||


e|------------------------------------------------------------------------||
B|-----------3-----------------------------------4-----------------4------||
G|-----------------------------0--------------4-----4-----------4-----4---||
D|--------4-----4-----------4-----4--------4-----------4-----4-----------4||
A|-----0-----------0-----0-----------0--2-----------------2---------------||
E|--2-----------------2---------------------------------------------------||


e|------------------------------------------------------------------------||
B|-----------4-----------------4-----------------3-----------------3------||
G|--------4-----4-----------4-----4-----------0-----0-----------0-----0---||
D|-----4-----------4-----4-----------4-----2-----------2-----2-----------2||
A|--0-----------------2-----------------3-----------------3---------------||
E|------------------------------------------------------------------------||


e|------------------------------------------------------------------------||
B|--------1--0--1-----------1--0--1-----------1--0--1-----------1--0--1---||
G|-----------------0-----------------0-----2-----------2-----2-----------2||
D|-----2-----------------2--------------0---------------------------------||
A|--0-----------------0-----------------------------------3---------------||
E|------------------------------------------------------------------------||


e|------------------------------------------------------------------------||
B|-----------3-----------------3-----------------3------------------------||
G|--------0-----0-----------0-----0--------------------------------0------||
D|-----4-----------4-----4-----------4--------4-----4-----------4-----4---||
A|--2-----------------2--------------------0-----------0-----0-----------0||
E|--------------------------------------2-----------------2---------------||


e|------------------------------------------------------------------------||
B|-----------3-----------------3-----------------2-----------------4------||
G|--------0-----0-----------0-----0-----------2-----2-----------4-----4---||
D|-----2-----------2-----2-----------2-----2-----------2-----4-----------4||
A|--3-----------------3-----------------0-----------------2---------------||
E|------------------------------------------------------------------------||


e|------------------------------------------------------||
B|-----------4-----------------5------------------------||
G|--------4-----4-----------4-----4---------------------||
D|-----4-----------4-----4-----------4------------------||
A|--0---------------------------------------------------||
E|--------------------3-----------------2---------------||


e|------------------------------------------------------------------------||
B|-----------0-----------------0------------------------------------------||
G|--------------0-----------------0--------------2--0--2-----------2--0---||
D|--------4--------4--------4--------4--------0-----------------0--------0||
A|-----5-----------------5-----------------0-----------------0------------||
E|--3-----------------3-----------------2-----------------2---------------||


e|------------------------------------------------------------------------||
B|-----------3-----------------3-----------------1-----------------1------||
G|--------0-----0-----------0-----0-----------0-----0-----------0-----0---||
D|-----4-----------4-----4-----------4-----2-----------2-----2-----------2||
A|--2-----------------2-----------------3-----------------3---------------||
E|------------------------------------------------------------------------||


e|------------------------------------------------------------------------||
B|-----------3-----------------3-----------------3-----------------3------||
G|--------0-----0-----------0-----0-----------0--------0--------0-----0---||
D|-----4-----------4-----4-----------4-----2--------2--------2-----------2||
A|--2-----------------2-----------------3-----------------3---------------||
E|------------------------------------------------------------------------||


e|------------------------------------------------------------------------||
B|-----------3-----------------3-----------------1-----------------1------||
G|--------0-----0-----------0-----0-----------0-----0-----------0-----0---||
D|-----4-----------4-----4-----------4-----2-----------2-----2-----------2||
A|--2-----------------2-----------------0-----------------3---------------||
E|------------------------------------------------------------------------||


e|------------------------------------------------------------------------||
B|-----------0-----------------0-----------------0-----------------1------||
G|--------------0-----------------0-----------0-----0-----------0-----0---||
D|--------4--------4--------4--------4-----2-----------2-----2-----------2||
A|-----5-----------------5--------------0-----------------3---------------||
E|--3-----------------3---------------------------------------------------||


e|------------------------------------------------------------------------||
B|-----------0-----------------0-----------------0-----------------1------||
G|--------------0-----------------0-----------0-----0-----------0-----0---||
D|--------4--------4--------4--------4-----2-----------2-----2-----------2||
A|-----5-----------------5--------------0-----------------3---------------||
E|--3-----------------3---------------------------------------------------||


e|------------------------------------------------------------------------||
B|-----------0-----------------0-----------------0-----------------1------||
G|--------------0-----------------0-----------0-----0-----------0-----0---||
D|--------4--------4--------4--------4-----2-----------2-----2-----------2||
A|-----5-----------------5--------------0-----------------3---------------||
E|--3-----------------3---------------------------------------------------||


e|------------------------------------------------------------------------||
B|-----------0-----------------0-----------------0-----------------1------||
G|--------------0-----------------0-----------0-----0-----------0-----0---||
D|--------4--------4--------4--------4-----2-----------2-----2-----------2||
A|-----5-----------------5--------------0-----------------3---------------||
E|--3-----------------3---------------------------------------------------||


e|----------------------------------||
B|----------5----------------4------||
G|-------------0----------------0---||
D|-----2/5--------4-----2/4--------4||
A|--3----------------2--------------||
E|----------------------------------||


e|------------------------------------------------------------------------||
B|-----------3-----------------3------------------------------------------||
G|--------------0-----------------0--------------3-----------------3------||
D|--------4--------4--------4--------4--------0-----0-----------0-----0---||
A|-----2-----------------2-----------------4-----------4-----4-----------4||
E|--0-----------------0-----------------2-----------------2---------------||


e|------------------------------------------------------------------------||
B|-----------3-----------------4-----------------0-----------------0------||
G|--------0-----0-----------4-----4-----------0-----0-----------0-----0---||
D|-----2-----------2-----4-----------4-----2-----------2-----2-----------2||
A|--3-----------------2-----------------3-----------------3---------------||
E|------------------------------------------------------------------------||


e|------------------------------------------------------------------------||
B|-----------3-----------------------------------4-----------------4------||
G|-----------------------------0--------------4-----4-----------4-----4---||
D|--------4-----4-----------4-----4--------4-----------4-----4-----------4||
A|-----0-----------0-----0-----------0--2-----------------2---------------||
E|--2-----------------2---------------------------------------------------||


e|------------------------------------------------------------------------||
B|-----------4-----------------4-----------------3-----------------3------||
G|--------4-----4-----------4-----4-----------0-----0-----------0-----0---||
D|-----4-----------4-----4-----------4-----2-----------2-----2-----------2||
A|--0-----------------2-----------------3-----------------3---------------||
E|------------------------------------------------------------------------||


e|------------------------------------------------------------------------||
B|--------1--0--1-----------1--0--1-----------1--0--1-----------1--0--1---||
G|-----------------0-----------------0-----2-----------2-----2-----------2||
D|-----2-----------------2--------------0---------------------------------||
A|--0-----------------0-----------------------------------3---------------||
E|------------------------------------------------------------------------||


e|------------------------------------------------------------------------||
B|-----------3-----------------3-----------------3------------------------||
G|--------0-----0-----------0-----0--------------------------------0------||
D|-----4-----------4-----4-----------4--------4-----4-----------4-----4---||
A|--2-----------------2--------------------0-----------0-----0-----------0||
E|--------------------------------------2-----------------2---------------||


e|------------------------------------------------------------------------||
B|-----------3-----------------3-----------------2-----------------4------||
G|--------0-----0-----------0-----0-----------2-----2-----------4-----4---||
D|-----2-----------2-----2-----------2-----2-----------2-----4-----------4||
A|--3-----------------3-----------------0-----------------2---------------||
E|------------------------------------------------------------------------||


e|------------------------------------------------------||
B|-----------4-----------------5-----------------5------||
G|--------4-----4-----------4-----4-----------4-----4---||
D|-----4-----------4-----4-----------4-----4-----------4||
A|--0---------------------------------------------------||
E|--------------------3-----------------3---------------||


e|------------------------------------||
B|-----------3-----------------3------||
G|--------0-----0-----------0-----0---||
D|-----2-----------2-----2-----------2||
A|--3-----------------3---------------||
E|------------------------------------||


e|------------------------------------------------------------------------||
B|--------1--0--1-----------1--0--1-----------1--0--1-----------1--0--1---||
G|-----------------0-----------------0-----2-----------2-----2-----------2||
D|-----2-----------------2--------------0---------------------------------||
A|--0-----------------0-----------------------------------3---------------||
E|------------------------------------------------------------------------||


e|------------------------------------------------------------------------||
B|-----------3-----------------3-----------------3------------------------||
G|--------0-----0-----------0-----0--------------------------------0------||
D|-----4-----------4-----4-----------4--------4-----4-----------4-----4---||
A|--2-----------------2--------------------0-----------0-----0-----------0||
E|--------------------------------------2-----------------2---------------||


e|------------------------------------------------------------------------||
B|-----------3-----------------3-----------------2-----------------4------||
G|--------0-----0-----------0-----0-----------2-----2-----------4-----4---||
D|-----2-----------2-----2-----------2-----2-----------2-----4-----------4||
A|--3-----------------3-----------------0-----------------2---------------||
E|------------------------------------------------------------------------||


e|------------------------------------------------------||
B|-----------4-----------------5------------------------||
G|--------4-----4-----------4-----4---------------------||
D|-----4-----------4-----4-----------4------------------||
A|--0---------------------------------------------------||
E|--------------------3-----------------2---------------||


e|------------------------------------------------------------------------||
B|-----------0-----------------0------------------------------------------||
G|--------------0-----------------0--------------2--0--2-----------2--0---||
D|--------4--------4--------4--------4--------0-----------------0--------0||
A|-----5-----------------5-----------------0-----------------0------------||
E|--3-----------------3-----------------2-----------------2---------------||


e|------------------------------------------------------------------------||
B|-----------3-----------------3-----------------1-----------------1------||
G|--------0-----0-----------0-----0-----------0-----0-----------0-----0---||
D|-----4-----------4-----4-----------4-----2-----------2-----2-----------2||
A|--2-----------------2-----------------3-----------------3---------------||
E|------------------------------------------------------------------------||


e|------------------------------------------------------------------------||
B|-----------3-----------------3-----------------3-----------------3------||
G|--------0-----0-----------0-----0-----------0--------0--------0-----0---||
D|-----4-----------4-----4-----------4-----2--------2--------2-----------2||
A|--2-----------------2-----------------3-----------------3---------------||
E|------------------------------------------------------------------------||


e|------------------------------------------------------------------------||
B|-----------3-----------------3-----------------1-----------------1------||
G|--------0-----0-----------0-----0-----------0-----0-----------0-----0---||
D|-----4-----------4-----4-----------4-----2-----------2-----2-----------2||
A|--2-----------------2-----------------0-----------------3---------------||
E|------------------------------------------------------------------------||


e|------------------------------------------------------------------------||
B|-----------0-----------------0-----------------0-----------------1------||
G|--------------0-----------------0-----------0-----0-----------0-----0---||
D|--------4--------4--------4--------4-----2-----------2-----2-----------2||
A|-----5-----------------5--------------0-----------------3---------------||
E|--3-----------------3---------------------------------------------------||


e|------------------------------------------------------------------------||
B|-----------0-----------------0-----------------0-----------------1------||
G|--------------0-----------------0-----------0-----0-----------0-----0---||
D|--------4--------4--------4--------4-----2-----------2-----2-----------2||
A|-----5-----------------5--------------0-----------------3---------------||
E|--3-----------------3---------------------------------------------------||


e|---------------------------------------------------------||
B|-----------0-----------------0-----------------0--------3||
G|--------------0-----------------0-----------------0-----0||
D|--------4--------4--------4--------4--------4--------4--4||
A|-----5-----------------5-----------------5--------------2||
E|--3-----------------3-----------------3------------------||
            
Submit corrections

comments powered by Disqus
↑ Back to top | Hyde Tabs for Angel's Tale. Lyrics for acoustic guitar and electric guitar. Tablatures and chords are parodies/interpretations of the original songs. You may use it for private study, scholarship, research or language learning purposes only