>
 >
Say Mama

Say Mama Guitar Tabs

Hurriganes - Say Mama chords, tabs, tablatures, lyrics

Guitar lessons | Add/correct | Request | Top 50 tabs Artists:  A B C D E F G H I J K L M N O P Q R S T U V W X Y Z 0-9

Say Mama Guitar Tabs – Hurriganes

CD, Sheet music, Poster

Do you like Say Mama? Share with your friends now
Tabs
Hurriganes- Say Mama



     H        E  E  E  E     Q    H.              Q    Q    E  E  E  E   
E||-----------------------|--------------------|------------------------|
B||-----------------------|--------------------|------------------------|
G||-----------------------|--------------------|--7---------------------|
D||-----------------------|--7-----------------|--7---------------------|
A||-----------------------|--7-----------------|--5---------------------|
E||--------------0--3--4--|--5-----------------|---------------0--3--4--|


  E  E  E  E  E  E  E  E     E  E  E  E  E  E  E  E   
--------------------------|--------------------------|
--------------------------|--------------------------|
--------------------------|--------------------------|
-----------2--5--4--2-----|-----------2--5--4--2-----|
--0--0--4--------------4--|--0--0--4--------------4--|
--------------------------|--------------------------|


  E  E  E  E  E  E  E  E     E  E  E  E  E  E  E  E   
--------------------------|--------------------------|
--------------------------|--------------------------|
-----------2--5--4--2-----|-----------2--5--4--2-----|
--0--0--4--------------4--|--0--0--4--------------4--|
--------------------------|--------------------------|
--------------------------|--------------------------|


  E  E  E  E  E  E  E  E     E  E  E  E  E  E  E  E   
--------------------------|--------------------------|
--------------------------|--------------------------|
--------------------------|--------------------------|
-----------2--5--4--2-----|-----------2--5--4--2-----|
--0--0--4--------------4--|--0--0--4--------------4--|
--------------------------|--------------------------|


  E  E  E  E  E  E  E  E     E  E  E  E  E  E  E  E   
--------------------------|--------------------------|
--------------------------|--------------------------|
--------------------------|-----------2--5--4--2-----|
--------------------------|--0--0--4--------------4--|
-----------2--5--4--2-----|--------------------------|
--0--0--4--------------4--|--------------------------|


  E  E  E  E  E  E  E  E     E  E  E  E  E  E  E  E     Q    H.            
--------------------------|--------------------------|--------------------|
--------------------------|--------------------------|--------------------|
--------------------------|--------------------------|--------------------|
-----------2--5--4--2-----|--------------------------|--7-----------------|
--0--0--4--------------4--|-----2--2--2--2-----------|--7-----------------|
--------------------------|-----0--0--0--0--0--3--4--|--5-----------------|


  Q    Q    E  E  E  E     E  E  E  E  E  E  E  E     E  E  E  E  E  E  E  E   
------------------------|--------------------------|--------------------------|
------------------------|--------------------------|--------------------------|
--7---------------------|--------------------------|--------------------------|
--7---------------------|-----------2--5--4--2-----|-----------2--5--4--2-----|
--5---------------------|--0--0--4--------------4--|--0--0--4--------------4--|
---------------0--3--4--|--------------------------|--------------------------|


  E  E  E  E  E  E  E  E     E  E  E  E  E  E  E  E   
--------------------------|--------------------------|
--------------------------|--------------------------|
-----------2--5--4--2-----|-----------2--5--4--2-----|
--0--0--4--------------4--|--0--0--4--------------4--|
--------------------------|--------------------------|
--------------------------|--------------------------|


  E  E  E  E  E  E  E  E     E  E  E  E  E  E  E  E   
--------------------------|--------------------------|
--------------------------|--------------------------|
--------------------------|--------------------------|
-----------2--5--4--2-----|-----------2--5--4--2-----|
--0--0--4--------------4--|--0--0--4--------------4--|
--------------------------|--------------------------|


  E  E  E  E  E  E  E  E     E  E  E  E  E  E  E  E   
--------------------------|--------------------------|
--------------------------|--------------------------|
--------------------------|-----------2--5--4--2-----|
--------------------------|--0--0--4--------------4--|
-----------2--5--4--2-----|--------------------------|
--0--0--4--------------4--|--------------------------|


  E  E  E  E  E  E  E  E     E  E  E  E  E  E  E  E   
--------------------------|--------------------------|
--------------------------|--------------------------|
--------------------------|--------------------------|
-----------2--5--4--2-----|--9--9--9--9--9--9--9--9--|
--0--0--4--------------4--|--7--7--7--7--7--7--7--7--|
--------------------------|--------------------------|


  E   E  E  E   E  E  E   E     E  E  E  E  E   E  E  E   
-----------------------------|---------------------------|
---------5---------5---------|--8--8--7--7--5------------|
--5h--6-----5h--6-----5h--6--|--9--9--7--7--5h--6--------|
-----------------------------|---------------------7-----|
-----------------------------|------------------------7--|
-----------------------------|---------------------------|


  E   E  E  E  S S E  E  E     E   E  S  S E  Q    E  E   
----------------------------|----------------------------|
----------------------------|----------------------------|
---------5-----7-5----5--7--|--Lb--5--7p-5----5----------|
--5h--7-----7------7--------|--------------7-------7-----|
----------------------------|-------------------------7--|
----------------------------|----------------------------|


  E   E  E  E  S S E  E  E     E   E  S S E  S S E  E  E   
----------------------------|------8----------------------|
----------------------------|--------------------------5--|
---------5-----7-5----5--7--|--Lb-----7-L-5--7-5----5--7--|
--5h--7-----7------7--------|--------------------7--------|
----------------------------|-----------------------------|
----------------------------|-----------------------------|


  E   E  E   E  E  E   E  E     E   E  E  E   E  E  E   E   
-----------------------------|-----------------------------|
------5------5--5--5---5--5--|--5---5--5--5---5--5--5---5--|
--7b-----7b--------7b--------|--7b--------7b--------7b-----|
-----------------------------|-----------------------------|
-----------------------------|-----------------------------|
-----------------------------|-----------------------------|


  W                                                                             
  Q     E  E  Q    E  E     E  E  E  Q    E  E  E     Q     E  E  E  E  E   E   
----------------------5--|--8--8--8--8----8--------|--5~-----------------------|
--8b----5-----5----8--5--|--7--7--7--7----7--7--5--|--------7--5-----5---------|
-----------7-------------|-------------------------|--------------7-----5h--6--|
-------------------------|-------------------------|---------------------------|
-------------------------|-------------------------|---------------------------|
-------------------------|-------------------------|---------------------------|


  E  E  E  Q    Q.        Q    H.              Q    Q    E  E  E  E   
-----------------------|--------------------|------------------------|
-----------------------|--------------------|------------------------|
-----------------------|--------------------|--7---------------------|
--7--5-----------------|--7-----------------|--7---------------------|
--------7--7-----------|--7-----------------|--5---------------------|
-----------------------|--5-----------------|---------------0--3--4--|


  E  E  E  E  E  E  E  E     E  E  E  E  E  E  E  E   
--------------------------|--------------------------|
--------------------------|--------------------------|
--------------------------|--------------------------|
-----------2--5--4--2-----|-----------2--5--4--2-----|
--0--0--4--------------4--|--0--0--4--------------4--|
--------------------------|--------------------------|


  E  E  E  E  E  E  E  E     E  E  E  E  E  E  E  E   
--------------------------|--------------------------|
--------------------------|--------------------------|
-----------2--5--4--2-----|-----------2--5--4--2-----|
--0--0--4--------------4--|--0--0--4--------------4--|
--------------------------|--------------------------|
--------------------------|--------------------------|


  E  E  E  E  E  E  E  E     E  E  E  E  E  E  E  E   
--------------------------|--------------------------|
--------------------------|--------------------------|
--------------------------|--------------------------|
-----------2--5--4--2-----|-----------2--5--4--2-----|
--0--0--4--------------4--|--0--0--4--------------4--|
--------------------------|--------------------------|


  E  E  E  E  E  E  E  E     E  E  E  E  E  E  E  E   
--------------------------|--------------------------|
--------------------------|--------------------------|
--------------------------|-----------2--5--4--2-----|
--------------------------|--0--0--4--------------4--|
-----------2--5--4--2-----|--------------------------|
--0--0--4--------------4--|--------------------------|


                                                                            W   
  E  E  E  E  E  E  E  E     E  E  E  E  E  E  E  E     E   E  E  Q.     E  E   
--------------------------|--------------------------|---------5--5------5--8--|
--------------------------|--------------------------|---------5--5------5-----|
--------------------------|--------------------------|--5h--6------------------|
-----------2--5--4--2-----|--9--9--9--9--9--9--9--9--|-------------------------|
--0--0--4--------------4--|--7--7--7--7--7--7--7--7--|-------------------------|
--------------------------|--------------------------|-------------------------|


  W                                             
  Q    E  E  Q    E  E     Q    Q    Q    Q     
--L----5-----5----------|--8----8----8----8----|
----------7-------7--5--|--7----7----7----7----|
------------------------|----------------------|
------------------------|----------------------|
------------------------|----------------------|
------------------------|----------------------|


  |----3----|    |----3----|                               
  Q    Q    Q    Q    Q    Q       Q    E  E  Q    E  S S  
--8----8----8----8----8----8----|--8----5-----5-----------|
--7----7----7----7----7----7----|--7-------7-------7--5-7-|
--------------------------------|-------------------------|
--------------------------------|-------------------------|
--------------------------------|-------------------------|
--------------------------------|-------------------------|


                             W                        
  E  E  E  E  E  E  E  E     Q    E  E  E  E  E  E    
--5--5--------5--5-----5--|--8----5-----5------------|
--------7--5--------7--5--|--7-------7-----5--7------|
--------------------------|----------------------5h--|
--------------------------|--------------------------|
--------------------------|--------------------------|
--------------------------|--------------------------|


                              |---3--|                    
  E  E  E  E  E  E  S S E     S S E  E  E  Q    E  E  E   
---------------------------|-----------------------------|
-----5-----------5--8-7-5--|--8-7-5-----5--5----5--8--5--|
--6-----7--5--6------------|---------7-------------------|
---------------------------|-----------------------------|
---------------------------|-----------------------------|
---------------------------|-----------------------------|


                                 W                       
  E  E  E  E  S   S E  S S E     Q    E  E  E  E  E  E   
------------------------------|-------------------------|
--8--5-----5------------------|-------------------------|
--------7-----7br-L-5--7-5----|--5----------------5-----|
---------------------------7--|-------7-----5--7-----7--|
------------------------------|----------7--------------|
------------------------------|-------------------------|


  E  E  E  Q    Q.        E  E  E  E  E  E  E  E     E  E  E  E  E  E  E  E   
-----------------------|--------------------------|--------------------------|
-----------------------|--------------------------|--------------------------|
-----------------------|--------------------------|--------------------------|
--7--5-----------------|-----------2--5--4--2-----|--------------------------|
--------7--7-----------|--0--0--4--------------4--|-----------2--5--4--2-----|
-----------------------|--------------------------|--0--0--4--------------4--|


  E  E  E  E  E  E  E  E     E  E  E  E  E  E  E  E   
--------------------------|--------------------------|
--------------------------|--------------------------|
-----------2--5--4--2-----|--------------------------|
--0--0--4--------------4--|-----------2--5--4--2-----|
--------------------------|--0--0--4--------------4--|
--------------------------|--------------------------|


  E  E  E  E  E  E  E  E     E  E  E  E  E  E  E  E   
--------------------------|--------------------------|
--------------------------|--------------------------|
--------------------------|--------------------------|
-----------2--5--4--2-----|--------------------------|
--0--0--4--------------4--|-----------2--5--4--2-----|
--------------------------|--0--0--4--------------4--|


  E  E  E  E  E  E  E  E     E  E  E  E  E  E  E  E     Q    Q    H         
--------------------------|--------------------------|---------------------|
--------------------------|--------------------------|---------------------|
-----------2--5--4--2-----|--------------------------|---------------------|
--0--0--4--------------4--|--------------------------|---------------------|
--------------------------|--0--0--4--4--5--5--6--6--|--7----5----3--------|
--------------------------|--------------------------|---------------------|


  W                  
-------------------||
-------------------||
-------------------||
-------------------||
-------------------||
--5----------------||




Duration Legend
---------------
W - whole
H - half
Q - quarter
E - 8th
S - 16th
T - 32nd
X - 64th
. - note dotted
|-n-|  - n-tuplets


Tablature Legend
----------------
L - tied note
x - dead note
g - grace note
(n) - ghost note
> - accentuded note
NH - natural harmonic
AH - artificial harmonic
TH - tapped harmonic
SH - semi harmonic
PH - pitch harmonic
h - hammer on
p - pull off
b - bend
br - bendRelease
pb - preBend
pbr - preBendRelease
brb - bendReleaseBend
\n/ - tremolo bar dip
\n - tremolo bar dive
-/n - tremolo bar Release up
/n\ - tremolo bar inverted dip
/n - tremolo bar return
-\n - tremolo bar Release down
S - shift slide
s - legato slide
/ -  slide into from below or out of upwards
\ -  slide into from above or out of downwards
~ - vibrato
W - wide vibrato
tr - trill
TP - tremolo picking
T - tapping
S - slap
P - pop
< - fade in
^ - brush up
v - brush down





Comments


Popular Hurriganes tabs & chords
My Only One Bass Tabs
Crazy Days Tabs
In The Nude Tabs
Keep On Movin Tabs
Lets Drink Today Tabs
Ridin Ridin Tabs
Super Oil And Asd Tabs
Tallahassee Lassie Tabs
Ya Ya Tabs
Pain In My Heart Ukulele


Song lyrics



↑ Back to top | Tablatures and chords are parodies/interpretations of the original songs. You may use it for private study, scholarship, research or language learning purposes only
© 2014 AZChords.com Contact us | Privacy policy | DMCA | Add/correct tabs | Request tabs | Top 50 tabs