» » »

Saigon Shakes Tabs (ver.1)

Artists:  A B C D E F G H I J K L M N O P Q R S T U V W X Y Z # 

Saigon Shakes Tabs (ver.1)

Hurriganes
Rating:
0/5 (0 votes)

Tabs too difficult? Try these video lessons and learn fast.
                -------------------------------------------------------------------------------
Hurriganes- Saigon shakes
10/80
-------------------------------------------------------------------------------


Intro
e|--------------|
B|--------------|
G|--------5-----|
D|----7---5-----|
A|----7---3-----|
E|----5---------|

Play this 20 times:
e|---------------------------------------------------------------------------|
B|---------------------------------------------------------------------------|
G|----------5-5-5--7-7-7-7-7-7-7---------------------------------------------|
D|---2-2-2--5-5-5--7-7-7-7-7-7-7---------------------------------------------|
A|---2-2-2--3-3-3--5-5-5-5-5-5-5---------------------------------------------|
E|---0-0-0-------------------------------------------------------------------|

Bridge
e|------------------------------------|
B|------------------------------------|
G|----4-------------------------------|
D|----4---7---5---2-------------------|
A|----2---7---5---2-------------------|
E|--------5---3---0-------------------|

Play four times
e|---------------------------------------------------------------------------|
B|---------------------------------------------------------------------------|
G|----------5-5-5--7-7-7-7-7-7-7---------------------------------------------|
D|---2-2-2--5-5-5--7-7-7-7-7-7-7---------------------------------------------|
A|---2-2-2--3-3-3--5-5-5-5-5-5-5---------------------------------------------|
E|---0-0-0-------------------------------------------------------------------|

Solo
e|-------------------------7-7-----------------------------------------------|
B|--------------------7-10-----7-10-7------------------------10--------------|
G|----------------7-9------------------9b11-9-7-9p7---7-9b11----11r9p7-------|
D|------------7-9-----------------------------------9------------------------|
A|--------7-9----------------------------------------------------------------|
E|---7-10--------------------------------------------------------------------|

                                            hold bend
e|-----------------------------------------12b14-14-14-14-14-14-14-13-13-13--|
B|-------10-10------10-10------10-10----10-----------------------------------|
G|--9/11-------9/11-------9/11-------11--------------------------------------|
D|---------------------------------------------------------------------------|
A|---------------------------------------------------------------------------|
E|---------------------------------------------------------------------------|

e|--12-10--------------------------------------------------------------------|
B|--------12-----------------------------------------------------------------|
G|---------------------------------------------------------------------------|
D|---------------------------------------------------------------------------|
A|---------------------------------------------------------------------------|
E|---------------------------------------------------------------------------|

Play eight times
e|---------------------------------------------------------------------------|
B|---------------------------------------------------------------------------|
G|----------5-5-5--7-7-7-7-7-7-7---------------------------------------------|
D|---2-2-2--5-5-5--7-7-7-7-7-7-7---------------------------------------------|
A|---2-2-2--3-3-3--5-5-5-5-5-5-5---------------------------------------------|
E|---0-0-0-------------------------------------------------------------------|

Outro
e|--------------|
B|--------------|
G|--------5-----|
D|----7---5---2-|
A|----7---3---2-|
E|----5-------0-|
            
Tabs too difficult? Try these video lessons and learn fast.




comments powered by Disqus
↑ Back to top | Tablatures and chords are parodies/interpretations of the original songs. You may use it for private study, scholarship, research or language learning purposes only