» » »

Miss Betty Tabs (ver.1)

Artists:  A B C D E F G H I J K L M N O P Q R S T U V W X Y Z # 

Miss Betty Tabs (ver.1)

Hurriganes
Rating:
0/5 (0 votes)

Tabs too difficult? Try these video lessons and learn fast.
                Hurriganes-Miss Betty

Intro
e|---------------------------------------------------------------------------|
B|---------------------------------------------------------------------------|
G|-------7--5----------7--5----------7--5----------7--5----------------------|
D|-------7--5--7-5-----7--5--7-5-----7--5--7-5-----7--5--7-5-----------------|
A|---7-7-------7-5-7-7-------7-5-7-7-------7-5-7-7-------7-5-----------------|
E|---5-5-----------5-5-----------5-5-----------5-5---------------------------|

Verse
e|---------------------------------------------------------------------------|
B|---------------------------------------------------------------------------|
G|---------------------------------------------------------------------------|
D|----------------------------------7-7-7-7-7-7-7-7-7-7-7-7-7-7-7-7----------|
A|--7-7-7-7-7-7-7-7-7-7-7-7-7-7-7-7-5-5-5-5-5-5-5-5-5-5-5-5-5-5-5-5----------|
E|--5-5-5-5-5-5-5-5-5-5-5-5-5-5-5-5------------------------------------------|

e|---------------------------------------------------------------------------|
B|---------------------------------------------------------------------------|
G|-------7--5----------7--5--------------------------------------------------|
D|-------7--5--7-5-----7--5--7-5---------------------------------------------|
A|---7-7-------7-5-7-7-------7-5---------------------------------------------|
E|---5-5-----------5-5-------------------------------------------------------|

e|---------------------------------------------------------------------------|
B|---------------------------------------------------------------------------|
G|---------------------------------------------------------------------------|
D|----------------------------------7-7-7-7-7-7-7-7-7-7-7-7-7-7-7-7----------|
A|--7-7-7-7-7-7-7-7-7-7-7-7-7-7-7-7-5-5-5-5-5-5-5-5-5-5-5-5-5-5-5-5----------|
E|--5-5-5-5-5-5-5-5-5-5-5-5-5-5-5-5------------------------------------------|

e|---------------------------------------------------------------------------|
B|---------------------------------------------------------------------------|
G|-------7--5----------7--5--------------------------------------------------|
D|-------7--5--7-5-----7--5--7-5---------------------------------------------|
A|---7-7-------7-5-7-7-------7-5---------------------------------------------|
E|---5-5-----------5-5-------------------------------------------------------|

Chorus
e|---------------------------------------------------------------------------|
B|---------------------------------------------------------------------------|
G|--9--9-9-9-9-9-9--7--7-7-7-7--5------7--5-----------7--5-------------------|
D|--9--9-9-9-9-9-9--7--7-7-7-7--5------7--5--7-5------7--5--7-5--------------|
A|--7--7-7-7-7-7-7--5--5-5-5-5-----7-7-------7-5--7-7-------7-5--------------|
E|---------------------------------5-5------------5-5------------------------|

e|---------------------------------------------------------------------------|
B|---------------------------------------------------------------------------|
G|--9--9-9-9-9-9-9--7--7-7-7-7--5------7--5-----------7--5-------------------|
D|--9--9-9-9-9-9-9--7--7-7-7-7--5------7--5--7-5------7--5--7-5--------------|
A|--7--7-7-7-7-7-7--5--5-5-5-5-----7-7-------7-5--7-7-------7-5--------------|
E|---------------------------------5-5------------5-5------------------------|

Verse
e|---------------------------------------------------------------------------|
B|---------------------------------------------------------------------------|
G|---------------------------------------------------------------5-----------|
D|----------------------------------7-7-7-7-7-7-7-7-7-7-7-7-7-7--5-----------|
A|--7-7-7-7-7-7-7-7-7-7-7-7-7-7-7-7-5-5-5-5-5-5-5-5-5-5-5-5-5-5--------------|
E|--5-5-5-5-5-5-5-5-5-5-5-5-5-5-5-5------------------------------------------|

e|---------------------------------------------------------------------------|
B|---------------------------------------------------------------------------|
G|-------7--5----------7--5--------------------------------------------------|
D|-------7--5--7-5-----7--5--7-5---------------------------------------------|
A|---7-7-------7-5-7-7-------7-5---------------------------------------------|
E|---5-5-----------5-5-------------------------------------------------------|
e|---------------------------------------------------------------------------|

e|---------------------------------------------------------------------------|
B|---------------------------------------------------------------------------|
G|---------------------------------------------------------------5-----------|
D|----------------------------------7-7-7-7-7-7-7-7-7-7-7-7-7-7--5-----------|
A|--7-7-7-7-7-7-7-7-7-7-7-7-7-7-7-7-5-5-5-5-5-5-5-5-5-5-5-5-5-5--------------|
E|--5-5-5-5-5-5-5-5-5-5-5-5-5-5-5-5------------------------------------------|

e|---------------------------------------------------------------------------|
B|---------------------------------------------------------------------------|
G|-------7--5----------7--5--------------------------------------------------|
D|-------7--5--7-5-----7--5--7-5---------------------------------------------|
A|---7-7-------7-5-7-7-------7-5---------------------------------------------|
E|---5-5-----------5-5-------------------------------------------------------|

Chorus
e|---------------------------------------------------------------------------|
B|---------------------------------------------------------------------------|
G|--9--9-9-9-9-9-9--7--7-7-7-7--5------7--5-----------7--5-------------------|
D|--9--9-9-9-9-9-9--7--7-7-7-7--5------7--5--7-5------7--5--7-5--------------|
A|--7--7-7-7-7-7-7--5--5-5-5-5-----7-7-------7-5--7-7-------7-5--------------|
E|---------------------------------5-5------------5-5------------------------|

e|---------------------------------------------------------------------------|
B|---------------------------------------------------------------------------|
G|--9--9-9-9-9-9-9--7--7-7-7-7--5------7--5-----------7--5-------------------|
D|--9--9-9-9-9-9-9--7--7-7-7-7--5------7--5--7-5------7--5--7-5--------------|
A|--7--7-7-7-7-7-7--5--5-5-5-5-----7-7-------7-5--7-7-------7-5--------------|
E|---------------------------------5-5------------5-5------------------------|

Bridge
e|---------------------------------------------------------------------------|
B|---------------------------------------------------------------------------|
G|---------------------------------------------------------------------------|
D|----------------------------------5-5-5-5-5-5-5-5-5-5-5-5-5-5-5-5----------|
A|--7-7-7-7-7-7-7-7-7-7-7-7-7-7-7-7-3-3-3-3-3-3-3-3-3-3-3-3-3-3-3-3----------|
E|--5-5-5-5-5-5-5-5-5-5-5-5-5-5-5-5------------------------------------------|

e|---------------------------------------------------------------------------|
B|---------------------------------------------------------------------------|
G|-----------------------------5---------------------------------------------|
D|-7-7-7-7-7-7-7-7-7-7-7-7-7-7-5---------------------------------------------|
A|-5-5-5-5-5-5-5-5-5-5-5-5-5-5-----------------------------------------------|
E|---------------------------------------------------------------------------|

e|---------------------------------------------------------------------------|
B|---------------------------------------------------------------------------|
G|-------7--5----------7--5----------7--5----------7--5----------------------|
D|-------7--5--7-5-----7--5--7-5-----7--5--7-5-----7--5--7-5-----------------|
A|---7-7-------7-5-7-7-------7-5-7-7-------7-5-7-7-------7-5-----------------|
E|---5-5-----------5-5-----------5-5-----------5-5---------------------------|

Solo
e|---------------------------------------------------------------------------|
B|--9b10------------------------------------------7-7-8-10-10-8-7------------|
G|--9b10-9-7-9-8b8.5-----6-6-7-9-9-7-6-7-6-----6\----------------------------|
D|-------------------9-9-------------------7-7-------------------------------|
A|---------------------------------------------------------------------------|
E|---------------------------------------------------------------------------|

e|---------------------------------------------------------------------------|
B|--8-7----------------------------------------------------------------------|
G|------7-7-7-/9-9-9-9-9-9-9-9-9-8-7-5-7-5-----------------------------------|
D|------------/9-9-9-9-9-9-9-9-9-8-7-5-7-5-7-5-------------------------------|
A|-----------------------------------------7-5-------------------------------|
E|---------------------------------------------------------------------------|

e|---------------------------------------------------------------------------|
B|---------------------------------------------------------------------------|
G|-------7--5----------7--5----------7--5----------7--5----------------------|
D|-------7--5--7-5-----7--5--7-5-----7--5--7-5-----7--5--7-5-----------------|
A|---7-7-------7-5-7-7-------7-5-7-7-------7-5-7-7-------7-5-----------------|
E|---5-5-----------5-5-----------5-5-----------5-5---------------------------|

Verse
e|---------------------------------------------------------------------------|
B|---------------------------------------------------------------------------|
G|------------------------------------------------------------7b8r7~---------|
D|----------------------------------7-7-7-7-7-7-7-7-7-7-7-7-7----------------|
A|--7-7-7-7-7-7-7-7-7-7-7-7-7-7-7-7-5-5-5-5-5-5-5-5-5-5-5-5-5----------------|
E|--5-5-5-5-5-5-5-5-5-5-5-5-5-5-5-5------------------------------------------|

e|---------------------------------------------------------------------------|
B|---------------------------------------------------------------------------|
G|-------7--5----------7--5--------------------------------------------------|
D|-------7--5--7-5-----7--5--7-5---------------------------------------------|
A|---7-7-------7-5-7-7-------7-5---------------------------------------------|
E|---5-5-----------5-5-------------------------------------------------------|
e|---------------------------------------------------------------------------|

e|---------------------------------------------------------------------------|
B|---------------------------------------------------------------------------|
G|---------------------------------------------------------------5-----------|
D|----------------------------------7-7-7-7-7-7-7-7-7-7-7-7-7-7--5-----------|
A|--7-7-7-7-7-7-7-7-7-7-7-7-7-7-7-7-5-5-5-5-5-5-5-5-5-5-5-5-5-5--------------|
E|--5-5-5-5-5-5-5-5-5-5-5-5-5-5-5-5------------------------------------------|

e|---------------------------------------------------------------------------|
B|---------------------------------------------------------------------------|
G|-------7--5----------7--5--------------------------------------------------|
D|-------7--5--7-5-----7--5--7-5---------------------------------------------|
A|---7-7-------7-5-7-7-------7-5---------------------------------------------|
E|---5-5-----------5-5-------------------------------------------------------|

Chorus
e|---------------------------------------------------------------------------|
B|---------------------------------------------------------------------------|
G|--9--9-9-9-9-9-9--7--7-7-7-7--5------7--5-----------7--5-------------------|
D|--9--9-9-9-9-9-9--7--7-7-7-7--5------7--5--7-5------7--5--7-5--------------|
A|--7--7-7-7-7-7-7--5--5-5-5-5-----7-7-------7-5--7-7-------7-5--------------|
E|---------------------------------5-5------------5-5------------------------|

e|---------------------------------------------------------------------------|
B|---------------------------------------------------------------------------|
G|--9--9-9-9-9-9-9--7--7-7-7-7--5------7--5-----------7--5-------------------|
D|--9--9-9-9-9-9-9--7--7-7-7-7--5------7--5--7-5------7--5--7-5--------------|
A|--7--7-7-7-7-7-7--5--5-5-5-5-----7-7-------7-5--7-7-------7-5--------------|
E|---------------------------------5-5------------5-5------------------------|

Outro
e|---------------------------------------------------------------------------|
B|---------------------------------------------------------------------------|
G|-------7--5----------7--5----------7--5----------7--5----------------------|
D|-------7--5--7-5-----7--5--7-5-----7--5--7-5-----7--5--7-5-----------------|
A|---7-7-------7-5-7-7-------7-5-7-7-------7-5-7-7-------7-5-----------------|
E|---5-5-----------5-5-----------5-5-----------5-5---------------------------|

e|---------------------------------------------------------------------------|
B|---------------------------------------------------------------------------|
G|-------7--5----------7--5----------7--5----------7--5----------------------|
D|-------7--5--7-5-----7--5--7-5-----7--5--7-5-----7--5--7-5-----------------|
A|---7-7-------7-5-7-7-------7-5-7-7-------7-5-7-7-------7-5-----------------|
E|---5-5-----------5-5-----------5-5-----------5-5---------------------------|

e|---------------------------------------------------------------------------|
B|---------------------------------------------------------------------------|
G|-------7--5----------7--5----------7--5----------7--5----------------------|
D|-------7--5--7-5-----7--5--7-5-----7--5--7-5-----7--5--7-5-----------------|
A|---7-7-------7-5-7-7-------7-5-7-7-------7-5-7-7-------7-5-----------------|
E|---5-5-----------5-5-----------5-5-----------5-5---------------------------|

e|---------------------------------------------------------------------------|
B|---------------------------------------------------------------------------|
G|-------7--5----------7--5----------7--5----------7-------------------------|
D|-------7--5--7-5-----7--5--7-5-----7--5--7-5-----7---7---------------------|
A|---7-7-------7-5-7-7-------7-5-7-7-------7-5-7-7-----7---------------------|
E|---5-5-----------5-5-----------5-5-----------5-5-----5---------------------|
            
Tabs too difficult? Try these video lessons and learn fast.




comments powered by Disqus
↑ Back to top | Tablatures and chords are parodies/interpretations of the original songs. You may use it for private study, scholarship, research or language learning purposes only