» » »

Down The Line Tabs (ver.1)

Artists:  A B C D E F G H I J K L M N O P Q R S T U V W X Y Z # 

Down The Line Tabs (ver.1)

Hurriganes
Rating:
4/5 (1 vote)

Hard to play? Try these video lessons and learn fast.
                ---------------------------------------------------------------------------
Hurriganes- Down the Line
---------------------------------------------------------------------------

Intro
e|---------------------------------------------------------------------------|
B|----3-3-3-3-3-3-3-3-3-3-3-3------------------------------------------------|
G|--2b4-4-4-4-4-4-4-4-4r3-3r2-2-0--------------------------------------------|
D|--------------------------------2-0----------------------------------------|
A|---------------------------------------------------------------------------|
E|---------------------------------------------------------------------------|

Verse
e|---------------------------------------------------------------------------|
B|---------------------------------------------------------------------------|
G|---------------------------------------------------------------------------|
D|----------------------2-2-4-5-4-2-2-4-5-4-2--------------------------------|
A|--2-4-5-4-2-2-4-5-4-2-0-0-0-0-0-0-0-0-0-0-0--------------------------------|
E|--0-0-0-0-0-0-0-0-0-0------------------------------------------------------|

e|---------------------------------------------------------------------------|
B|---------------------------------------------------------------------------|
G|---------------------------------------------------------------------------|
D|----------------------2-2-4-5-4-2-2-4-5-4-2--------------------------------|
A|--2-4-5-4-2-2-4-5-4-2-0-0-0-0-0-0-0-0-0-0-0--------------------------------|
E|--0-0-0-0-0-0-0-0-0-0------------------------------------------------------|

Chorus
e|---------------------------------------------------------------------------|
B|-------------------------------------------3-------------------------------|
G|-------------------------------------------2--2----------------------------|
D|-----------------4-4-4-4-4-4-2--2-2-2-2-2--0--2----------------------------|
A|-----2--2-2-2-2--2-2-2-2-2-2-0--0-0-0-0-0-----0----------------------------|
E|--0--0--0-0-0-0----------------------------------3b4-----------------------|

e|---------------------------------------------------------------------------|
B|---------------------------------------------------------------------------|
G|---------------------------------------------------------------------------|
D|-----------------4-4-4-4-4-4-----------------------------------------------|
A|-----2--2-2-2-2--2-2-2-2-2-2--2-2-4-5-4-2-2-4-5-4-2------------------------|
E|--0--0--0-0-0-0---------------0-0-0-0-0-0-0-0-0-0-0------------------------|

Verse
e|---------------------------------------------------------------------------|
B|---------------------------------------------------------------------------|
G|---------------------------------------------------------------------------|
D|----------------------2-2-4-5-4-2-2-4-5-4-2--------------------------------|
A|--2-4-5-4-2-2-4-5-4-2-0-0-0-0-0-0-0-0-0-0-0--------------------------------|
E|--0-0-0-0-0-0-0-0-0-0------------------------------------------------------|

e|---------------------------------------------------------------------------|
B|---------------------------------------------------------------------------|
G|---------------------------------------------------------------------------|
D|----------------------2-2-4-5-4-2-2-4-5-4-2--------------------------------|
A|--2-4-5-4-2-2-4-5-4-2-0-0-0-0-0-0-0-0-0-0-0--------------------------------|
E|--0-0-0-0-0-0-0-0-0-0------------------------------------------------------|

Chorus
e|---------------------------------------------------------------------------|
B|-------------------------------------------3-------------------------------|
G|-------------------------------------------2--2----------------------------|
D|-----------------4-4-4-4-4-4-2--2-2-2-2-2--0--2----------------------------|
A|-----2--2-2-2-2--2-2-2-2-2-2-0--0-0-0-0-0-----0----------------------------|
E|--0--0--0-0-0-0----------------------------------3b4-----------------------|

e|---------------------------------------------------------------------------|
B|---------------------------------------------------------------------------|
G|---------------------------------------------------------------------------|
D|-----------------4-4-4-4-4-4-----------------------------------------------|
A|-----2--2-2-2-2--2-2-2-2-2-2--2-2-4-5-4-2-2-4-5-4-2------------------------|
E|--0--0--0-0-0-0---------------0-0-0-0-0-0-0-0-0-0-0------------------------|

Solo
e|---------------------------------------------------------------------------|
B|----3-3-3-3-3-3-3-3-3------------------------------------------------------|
G|--2b4-4-4-4-4-4-4-4-4------------------2b4-2-------9----9----9-------------|
D|------------------------0-2--0-----------------/11---11---11---------------|
A|-------------------------------2p0-----------------------------------------|
E|-----------------------------------3b4-------------------------------------|

e|---------------------------------------------------------------------------|
B|--------12-------12--------------------------------------------------------|
G|--11b13----11b13===r11-9----9-9----9-11b12-11b12--------9-11b13----9----9--|
D|-------------------------11-----11---------------11-/11---------11---11----|
A|---------------------------------------------------------------------------|
E|---------------------------------------------------------------------------|

Chorus/Solo
e|-----12-------12-----------------------------------------------------------|
B|--------15b17===r15~-12----12----------------------------------------------|
G|-/13--------------------14----14-16-16b18r16-12----12-14b16r14-12----14----|
D|------------------------------------------------14----------------14-------|
A|---------------------------------------------------------------------------|
E|---------------------------------------------------------------------------|

e|--------12----14b16-14-12-------12----12-----------------------------------|
B|-----------14--------------------------------------------------------------|
G|-12-/13-------------------12h13----14---12h13----------12h13\--------------|
D|---------------------------------------------14--12h14---------------------|
A|---------------------------------------------------------------------------|
E|---------------------------------------------------------------------------|

Verse
e|---------------------------------------------------------------------------|
B|---------------------------------------------------------------------------|
G|---------------------------------------------------------------------------|
D|----------------------2-2-4-5-4-2-2-4-5-4-2--------------------------------|
A|--2-4-5-4-2-2-4-5-4-2-0-0-0-0-0-0-0-0-0-0-0--------------------------------|
E|--0-0-0-0-0-0-0-0-0-0------------------------------------------------------|

e|---------------------------------------------------------------------------|
B|---------------------------------------------------------------------------|
G|---------------------------------------------------------------------------|
D|----------------------2-2-4-5-4-2-2-4-5-4-2--------------------------------|
A|--2-4-5-4-2-2-4-5-4-2-0-0-0-0-0-0-0-0-0-0-0--------------------------------|
E|--0-0-0-0-0-0-0-0-0-0------------------------------------------------------|

Chorus
e|---------------------------------------------------------------------------|
B|-------------------------------------------3-------------------------------|
G|-------------------------------------------2--2----------------------------|
D|-----------------4-4-4-4-4-4-2--2-2-2-2-2--0--2----------------------------|
A|-----2--2-2-2-2--2-2-2-2-2-2-0--0-0-0-0-0-----0----------------------------|
E|--0--0--0-0-0-0----------------------------------3b4-----------------------|

e|---------------------------------------------------------------------------|
B|---------------------------------------------------------------------------|
G|---------------------------------------------------------------------------|
D|-----------------4-4-4-4-4-4-----------------------------------------------|
A|-----2--2-2-2-2--2-2-2-2-2-2--2-2-4-5-4-2-2-4-5-4-2------------------------|
E|--0--0--0-0-0-0---------------0-0-0-0-0-0-0-0-0-0-0------------------------|

e|---------------------------------------------------------------------------|
B|-------------------------------------------3-------------------------------|
G|-------------------------------------------2--2----------------------------|
D|-----------------4-4-4-4-4-4-2--2-2-2-2-2--0--2----------------------------|
A|-----2--2-2-2-2--2-2-2-2-2-2-0--0-0-0-0-0-----0----------------------------|
E|--0--0--0-0-0-0----------------------------------3b4-----------------------|

e|---------------------------------------------------------------------------|
B|---------------------------------------------------------------------------|
G|---------------------------------------------------------------------------|
D|-----------------4-4-4-4-4-4-----------------------------------------------|
A|-----2--2-2-2-2--2-2-2-2-2-2--2-2-4-5-4-2-2-4-5-4-2------------------------|
E|--0--0--0-0-0-0---------------0-0-0-0-0-0-0-0-0-0-0------------------------|

e|---------------------------------------------------------------------------|
B|-------------------------------------------3-------------------------------|
G|-------------------------------------------2--2----------------------------|
D|-----------------4-4-4-4-4-4-2--2-2-2-2-2--0--2----------------------------|
A|-----2--2-2-2-2--2-2-2-2-2-2-0--0-0-0-0-0-----0----------------------------|
E|--0--0--0-0-0-0----------------------------------3b4-----------------------|

e|---------------------------------------------------------------------------|
B|---------------------------------------------------------------------------|
G|---------------------------------------------------------------------------|
D|-----------------4-4-4-4-4-4----------------------2------------------------|
A|-----2--2-2-2-2--2-2-2-2-2-2--2-2-4-5-4-2-2-------2------------------------|
E|--0--0--0-0-0-0---------------0-0-0-0-0-0-0-------0------------------------|
            
Hard to play? Try these video lessons and learn fast. | Correct




comments powered by Disqus
↑ Back to top | Tablatures and chords are parodies/interpretations of the original songs. You may use it for private study, scholarship, research or language learning purposes only