>
 >
Brand New Sucker

Brand New Sucker Guitar Tabs

Hurriganes - Brand New Sucker chords, tabs, tablatures, lyrics

Guitar lessons | Add/correct | Request | Top 50 tabs Artists:  A B C D E F G H I J K L M N O P Q R S T U V W X Y Z 0-9

Brand New Sucker Guitar Tabs – Hurriganes

CD, Sheet music, Poster

Do you like Brand New Sucker? Share with your friends now
Tabs
-------------------------------------------------------------------------------
Hurriganes- Brand New Sucker
-------------------------------------------------------------------------------

Intro
e|---------------------------------------------------------------------------|
B|---------------------------------------------------------------------------|
G|---------------------------------------------------------------------------|
D|---------------------------------------------------------------------------|
A|--2-2-2-2-2-2-2-2-2-2-2-2-2-2-2-2-2-2-2-2-2-2-2-2-2-2-2-2-2-2-2-2----------|
E|--0-0-0-0-0-0-0-0-0-0-0-0-0-0-0-0-0-0-0-0-0-0-0-0-0-0-0-0-0-0-0-0----------|

Verse
e|---------------------------------------------------------------------------|
B|---------------------------------------------------------------------------|
G|---------------------------------------------------------------------------|
D|---------------------------------------------------------------------------|
A|--2-2-2-2-2-2-2-2-2-2-2-2-2-2-2-2-2-2-2-2-2-2-2-2-2-2-2-2-2-2-2-2----------|
E|--0-0-0-0-0-0-0-0-0-0-0-0-0-0-0-0-0-0-0-0-0-0-0-0-0-0-0-0-0-0-0-0----------|

e|---------------------------------------------------------------------------|
B|---------------------------------------------------------------------------|
G|---------------------------------------------------------------------------|
D|--2--4---------------------------------------------------------------------|
A|--0--2--2-0--------2-2-2-2-2-2-2-2-2-2-2-2-2-2-----------------------------|
E|------------3b4-0--0-0-0-0-0-0-0-0-0-0-0-0-0-0-----------------------------|

e|---------------------------------------------------------------------------|
B|---------------------------------------------------------------------------|
G|---------------------------------------------------------------------------|
D|---------------------------------------------------------------------------|
A|--2-2-2-2-2-2-2-2-2-2-2-2-2-2-2-2-2-2-2-2-2-2-2-2-2-2-2-2-2-2-2-2----------|
E|--0-0-0-0-0-0-0-0-0-0-0-0-0-0-0-0-0-0-0-0-0-0-0-0-0-0-0-0-0-0-0-0----------|

e|---------------------------------------------------------------------------|
B|---------------------------------------------------------------------------|
G|---------------------------------------------------------------------------|
D|--2--4---------------------------------------------------------------------|
A|--0--2--2-0--------2-2-2-2-2-2-2-2-2-2-2-2-2-2-----------------------------|
E|------------3b4-0--0-0-0-0-0-0-0-0-0-0-0-0-0-0-----------------------------|

Chorus
e|------9-9-9-8-9-----4-4-4-3-4----------------------------------------------|
B|------8-8-8-7-8-----3-3-3-2-3---2---4-2---4-2---4-2---4-4-4-4-4-4-...-4\---|
G|------9-9-9-8-9-----4-4-4-3-4---2---4-2---4-2---4-2---4-4-4-4-4-4-...-4\---|
D|---2------------------------------4-----4-----4-----4----------------------|
A|---0-------------2---------------------------------------------------------|
E|-----------------0---------------------------------------------------------|

e|---------------------------------------------------------------------------|
B|---------------------------------------------------------------------------|
G|---------------------------------------------------------------------------|
D|---------------------------------------------------------------------------|
A|--2-2-2-2-2-2-2-2-2-2-2-2-2-2-2-2-2-2-2-2-2-2-2-2-2-2-2-2-2-2-2-2----------|
E|--0-0-0-0-0-0-0-0-0-0-0-0-0-0-0-0-0-0-0-0-0-0-0-0-0-0-0-0-0-0-0-0----------|

Verse
e|---------------------------------------------------------------------------|
B|---------------------------------------------------------------------------|
G|---------------------------------------------------------------------------|
D|---------------------------------------------------------------------------|
A|--2-2-2-2-2-2-2-2-2-2-2-2-2-2-2-2-2-2-2-2-2-2-2-2-2-2-2-2-2-2-2-2----------|
E|--0-0-0-0-0-0-0-0-0-0-0-0-0-0-0-0-0-0-0-0-0-0-0-0-0-0-0-0-0-0-0-0----------|

e|---------------------------------------------------------------------------|
B|---------------------------------------------------------------------------|
G|---------------------------------------------------------------------------|
D|--2--4---------------------------------------------------------------------|
A|--0--2--2-0--------2-2-2-2-2-2-2-2-2-2-2-2-2-2-----------------------------|
E|------------3b4-0--0-0-0-0-0-0-0-0-0-0-0-0-0-0-----------------------------|

e|---------------------------------------------------------------------------|
B|---------------------------------------------------------------------------|
G|---------------------------------------------------------------------------|
D|---------------------------------------------------------------------------|
A|--2-2-2-2-2-2-2-2-2-2-2-2-2-2-2-2-2-2-2-2-2-2-2-2-2-2-2-2-2-2-2-2----------|
E|--0-0-0-0-0-0-0-0-0-0-0-0-0-0-0-0-0-0-0-0-0-0-0-0-0-0-0-0-0-0-0-0----------|

e|---------------------------------------------------------------------------|
B|---------------------------------------------------------------------------|
G|---------------------------------------------------------------------------|
D|--2--4---------------------------------------------------------------------|
A|--0--2--2-0--------2-2-2-2-2-2-2-2-2-2-2-2-2-2-----------------------------|
E|------------3b4-0--0-0-0-0-0-0-0-0-0-0-0-0-0-0-----------------------------|

Chorus
e|------9-9-9-8-9-----4-4-4-3-4------------------------------7-----7-----7---|
B|------8-8-8-7-8-----3-3-3-2-3---2---4-2---4-2---4-2---10b12-10b12-10b12----|
G|------9-9-9-8-9-----4-4-4-3-4---2---4-2---4-2---4-2------------------------|
D|---2------------------------------4-----4-----4-----4----------------------|
A|---0-------------2---------------------------------------------------------|
E|-----------------0---------------------------------------------------------|

Solo
e|--------7-----5-5-5-/5-5-5-5-5--5-5-5-/5-5-5-5-5--0-0----------------------|
B|--10b12---10\-5-5-5-/5-5-5-5-5--5-5-5-/5-5-5-5-5--0-0-----------------3----|
G|------------------------------------------------------2-2-0h1---0-2b4------|
D|--------------------------------------------------------------2------------|
A|---------------------------------------------------------------------------|
E|---------------------------------------------------------------------------|

e|----------------------------------------7-7-7-7-7-7-7-7--------------------|
B|------------------4-2---4---2--4--------7-7-7-7-7-7-7-7--------------------|
G|---4r2-0------2---4-2---4---2--4----2-------------------9-7h9p7---9-7\-----|
D|---------2-0----4-----4---4---4--4----4-------------------------9----------|
A|---------------------------------------------------------------------------|
E|---------------------------------------------------------------------------|

e|---------------------------------------------------------------------------|
B|---------------------------------------------------------------------------|
G|---------------------------------------------------------------------------|
D|---------------------------------------------------------------------------|
A|--2-2-2-2-2-2-2-2-2-2-2-2-2-2-2-2-2-2-2-2-2-2-2-2-2-2-2-2-2-2-2-2----------|
E|--0-0-0-0-0-0-0-0-0-0-0-0-0-0-0-0-0-0-0-0-0-0-0-0-0-0-0-0-0-0-0-0----------|

Verse
e|---------------------------------------------------------------------------|
B|---------------------------------------------------------------------------|
G|---------------------------------------------------------------------------|
D|---------------------------------------------------------------------------|
A|--2-2-2-2-2-2-2-2-2-2-2-2-2-2-2-2-2-2-2-2-2-2-2-2-2-2-2-2-2-2-2-2----------|
E|--0-0-0-0-0-0-0-0-0-0-0-0-0-0-0-0-0-0-0-0-0-0-0-0-0-0-0-0-0-0-0-0----------|

e|---------------------------------------------------------------------------|
B|---------------------------------------------------------------------------|
G|---------------------------------------------------------------------------|
D|--2--4---------------------------------------------------------------------|
A|--0--2--2-0--------2-2-2-2-2-2-2-2-2-2-2-2-2-2-----------------------------|
E|------------3b4-0--0-0-0-0-0-0-0-0-0-0-0-0-0-0-----------------------------|

e|---------------------------------------------------------------------------|
B|---------------------------------------------------------------------------|
G|---------------------------------------------------------------------------|
D|---------------------------------------------------------------------------|
A|--2-2-2-2-2-2-2-2-2-2-2-2-2-2-2-2-2-2-2-2-2-2-2-2-2-2-2-2-2-2-2-2----------|
E|--0-0-0-0-0-0-0-0-0-0-0-0-0-0-0-0-0-0-0-0-0-0-0-0-0-0-0-0-0-0-0-0----------|

e|---------------------------------------------------------------------------|
B|---------------------------------------------------------------------------|
G|---------------------------------------------------------------------------|
D|--2--4---------------------------------------------------------------------|
A|--0--2--2-0--------2-2-2-2-2-2-2-2-2-2-2-2-2-2-----------------------------|
E|------------3b4-0--0-0-0-0-0-0-0-0-0-0-0-0-0-0-----------------------------|

Chorus
e|------9-9-9-8-9-----4-4-4-3-4------------------------------7-----7-----7---|
B|------8-8-8-7-8-----3-3-3-2-3---2---4-2---4-2---4-2---10b12-10b12-10b12----|
G|------9-9-9-8-9-----4-4-4-3-4---2---4-2---4-2---4-2------------------------|
D|---2------------------------------4-----4-----4-----4----------------------|
A|---0-------------2---------------------------------------------------------|
E|-----------------0---------------------------------------------------------|

e|------9-9-9-8-9-----4-4-4-3-4----------------------------------------------|
B|------8-8-8-7-8-----3-3-3-2-3---2---4-2--------2---4p2---2-----------------|
G|------9-9-9-8-9-----4-4-4-3-4---2---4-2--------2---4p2---2-----------------|
D|---2------------------------------4-----4--2-4---4-----4-------------------|
A|---0-------------2---------------------------------------------------------|
E|-----------------0---------------------------------------------------------|



e|----------7-------7--------------------------------------------------------|
B|------------10b12---10p7---7-----------------------------------------------|
G|----9b11-----------------9---9---7-----------------------------------------|
D|-------------------------------9---9---------------------------------------|
A|---------------------------------------------------------------------------|
E|---------------------------------------------------------------------------|

e|---------------------------------------------------------------------------|
B|---------------------------------------------------------------------------|
G|---------------------------------------------------------------------------|
D|---------------------------------------------------------------------------|
A|--2-2-2-2-2-2-2-2-2-2-2-2-2-2-2-2-2----2-2-2-------------------------------|
E|--0-0-0-0-0-0-0-0-0-0-0-0-0-0-0-0-0----0-0-0-------------------------------|





Comments


Popular Hurriganes tabs & chords
My Only One Bass Tabs
Bourbon Street Chords
Bourbon Street Intro Tabs
I Will Stay 3 Tabs
Pretty Mona Tabs
Red House Tabs
Saigon Shakes Tabs
Woo-oo-oo-oo-o Live Tabs
Hey Groupie Ukulele
Keep On Movin Ukulele


Song lyrics



↑ Back to top | Tablatures and chords are parodies/interpretations of the original songs. You may use it for private study, scholarship, research or language learning purposes only
© 2014 AZChords.com Contact us | Privacy policy | DMCA | Add/correct tabs | Request tabs | Top 50 tabs