>
 >
Bad Baby

Bad Baby Guitar Tabs

Hurriganes - Bad Baby chords, tabs, tablatures, lyrics

Guitar lessons | Add/correct | Request | Top 50 tabs Artists:  A B C D E F G H I J K L M N O P Q R S T U V W X Y Z 0-9

Bad Baby Guitar Tabs – Hurriganes

CD, Sheet music, Poster

Do you like Bad Baby? Share with your friends now
Tabs
Hurriganes- Bad Baby                                     


Gtr.1
                                                                     


      PM  PM  PM  PM  PM  PM  PM  PM     PM  PM  PM  PM                 
      E   E   E   E   E   E   E   E      E   E   E   E   E   E   E  E   
E||----------------------------------|---------------------------------|
B||----------------------------------|---------------------------------|
G||----------------------------------|--------------------------10--8--|
D||----------------------------------|----------------------10--10--8--|
A||--10--10--10--10--10--10--10--10--|--10--10--10--10--10--10---------|
E||---8---8---8---8---8---8---8---8--|---8---8---8---8---8---8---------|


   PM  PM  PM  PM  PM  PM  PM  PM     PM  PM  PM  PM                 
   E   E   E   E   E   E   E   E      E   E   E   E   E   E   E  E   
----------------------------------|---------------------------------|
----------------------------------|---------------------------------|
----------------------------------|--------------------------10--8--|
----------------------------------|----------------------10--10--8--|
--10--10--10--10--10--10--10--10--|--10--10--10--10--10--10---------|
---8---8---8---8---8---8---8---8--|---8---8---8---8---8---8---------|


     PM  PM  PM  PM  PM  PM  PM  PM     PM  PM  PM  PM                 
     E   E   E   E   E   E   E   E      E   E   E   E   E   E   E  E   
|-----------------------------------|---------------------------------|
|-----------------------------------|---------------------------------|
|*----------------------------------|--------------------------10--8--|
|*----------------------------------|----------------------10--10--8--|
|---10--10--10--10--10--10--10--10--|--10--10--10--10--10--10---------|
|----8---8---8---8---8---8---8---8--|---8---8---8---8---8---8---------|


   PM  PM  PM  PM  PM  PM  PM  PM     PM  PM  PM  PM                 
   E   E   E   E   E   E   E   E      E   E   E   E   E   E   E  E   
----------------------------------|---------------------------------|
----------------------------------|---------------------------------|
----------------------------------|--------------------------10--8--|
----------------------------------|----------------------10--10--8--|
--10--10--10--10--10--10--10--10--|--10--10--10--10--10--10---------|
---8---8---8---8---8---8---8---8--|---8---8---8---8---8---8---------|


   PM  PM  PM  PM  PM  PM  PM  PM     PM  PM  PM  PM                 
   E   E   E   E   E   E   E   E      E   E   E   E   E   E   E  E   
----------------------------------|---------------------------------|
----------------------------------|---------------------------------|
----------------------------------|--------------------------10--8--|
----------------------------------|----------------------10--10--8--|
--10--10--10--10--10--10--10--10--|--10--10--10--10--10--10---------|
---8---8---8---8---8---8---8---8--|---8---8---8---8---8---8---------|


   PM  PM  PM  PM  PM  PM  PM  PM     PM  PM  PM  PM                 
   E   E   E   E   E   E   E   E      E   E   E   E   E   E   E  E   
----------------------------------|---------------------------------|
----------------------------------|---------------------------------|
----------------------------------|---------------------------------|
----------------------------------|---------------------------------|
--10--10--10--10--10--10--10--10--|--10--10--10--10--10--10---------|
---8---8---8---8---8---8---8---8--|---8---8---8---8---8---8--11--8--|


   E   E   E   E   E   E   E   E      E   E   E   E   E   E   E   E   
----------------------------------|----------------------------------|
----------------------------------|----------------------------------|
----------------------------------|----------------------------------|
--10--10--12--10--10--10--12--10--|--10--10--12--10--10--10--12--10--|
---8---8---8---8---8---8---8---8--|---8---8---8---8---8---8---8---8--|
----------------------------------|----------------------------------|


   E   E    E   E   E   E   E   E      E   E    E   E   E   E   E   E   
-----------------------------------|-----------------------------------|
-----------------------------------|-----------------------------------|
-----------------------------------|-----------------------------------|
-----------------------------------|-----------------------------------|
--10--10--/10--10---L--10--10--10--|--10--10--/10--10---L--10--10--10--|
---8---8---/8---8---L---8---8---8--|---8---8---/8---8---L---8---8---8--|


   E   E   E   E   E   E   E   E      E   E   E   E   E   E   E   E   
----------------------------------|----------------------------------|
----------------------------------|----------------------------------|
----------------------------------|----------------------------------|
--10--10--12--10--10--10--12--10--|--10--10--12--10--10--10--12--10--|
---8---8---8---8---8---8---8---8--|---8---8---8---8---8---8---8---8--|
----------------------------------|----------------------------------|


   E   E    E   E   E   E   E   E      E   E    E   E   E   E   E   E     
-----------------------------------|------------------------------------||
-----------------------------------|------------------------------------||
-----------------------------------|-----------------------------------*||
-----------------------------------|-----------------------------------*||
--10--10--/10--10---L--10--10--10--|--10--10--/10--10---L--10--10--10---||
---8---8---/8---8---L---8---8---8--|---8---8---/8---8---L---8---8---8---||


  E  E  E  E  E  E  E  E     E  E  E  E  E  E  E  E   
--------------------------|--------------------------|
--------------------------|--------------------------|
--------------------------|--------------------------|
--------------------------|--------------------------|
--5--5--7--5--5--5--7--5--|--5--5--7--5--5--5--7--5--|
--3--3--3--3--3--3--3--3--|--3--3--3--3--3--3--3--3--|


  E  E  E  E  E  E  E  E     E  E  E  E  E  E  E  E   
--------------------------|--------------------------|
--------------------------|--------------------------|
--------------------------|--------------------------|
--------------------------|--------------------------|
--3--3--5--3--3--3--5--3--|--3--3--5--3--3--3--5--3--|
--1--1--1--1--1--1--1--1--|--1--1--1--1--1--1--1--1--|


   E   E    E   E   E   E   E   E      E   E    E   E   E   E   E   E   
-----------------------------------|-----------------------------------|
-----------------------------------|-----------------------------------|
-----------------------------------|-----------------------------------|
-----------------------------------|-----------------------------------|
--10--10--/10--10---L--10--10--10--|--10--10--/10--10---L--10--10--10--|
---8---8---/8---8---L---8---8---8--|---8---8---/8---8---L---8---8---8--|


   E   E    E   E   E   E   E   E      E   E    E   E   E   E   E   E   
-----------------------------------|-----------------------------------|
-----------------------------------|-----------------------------------|
-----------------------------------|-----------------------------------|
-----------------------------------|-----------------------------------|
--10--10--/10--10---L--10--10--10--|--10--10--/10--10---L--10--10--10--|
---8---8---/8---8---L---8---8---8--|---8---8---/8---8---L---8---8---8--|


  E  E  E  E  E  E  E  E     E  E  E  E  E  E  E  E   
--------------------------|--------------------------|
--------------------------|--------------------------|
--------------------------|--------------------------|
--------------------------|--------------------------|
--5--5--7--5--5--5--7--5--|--5--5--7--5--5--5--7--5--|
--3--3--3--3--3--3--3--3--|--3--3--3--3--3--3--3--3--|


  E  E  E  E  E  E  E  E     E  E  E  E  E  E  E  E   
--------------------------|--------------------------|
--------------------------|--------------------------|
--------------------------|--------------------------|
--------------------------|--------------------------|
--3--3--5--3--3--3--5--3--|--3--3--5--3--3--3--5--3--|
--1--1--1--1--1--1--1--1--|--1--1--1--1--1--1--1--1--|


   E   E    E   E   E   E   E   E      E   E    E   E   E   E   E   E   
-----------------------------------|-----------------------------------|
-----------------------------------|-----------------------------------|
-----------------------------------|-----------------------------------|
-----------------------------------|-----------------------------------|
--10--10--/10--10---L--10--10--10--|--10--10--/10--10---L--10--10--10--|
---8---8---/8---8---L---8---8---8--|---8---8---/8---8---L---8---8---8--|


   E   E    E   E   E   E   E   E      E   E    E   E   E   E   E   E   
-----------------------------------|-----------------------------------|
-----------------------------------|-----------------------------------|
-----------------------------------|-----------------------------------|
-----------------------------------|-----------------------------------|
--10--10--/10--10---L--10--10--10--|--10--10--/10--10---L--10--10--10--|
---8---8---/8---8---L---8---8---8--|---8---8---/8---8---L---8---8---8--|


   PM  PM  PM  PM  PM  PM  PM  PM     PM  PM  PM  PM  PM  PM  PM  PM  
   E   E   E   E   E   E   E   E      E   E   E   E   E   E   E   E   
----------------------------------|----------------------------------|
----------------------------------|----------------------------------|
----------------------------------|----------------------------------|
----------------------------------|----------------------------------|
--10--10--12--10--10--10--12--10--|--10--10--12--10--10--10--12--10--|
---8---8---8---8---8---8---8---8--|---8---8---8---8---8---8---8---8--|


   PM  PM  PM  PM  PM  PM  PM  PM     PM  PM  PM  PM  PM  PM  PM  PM  
   E   E   E   E   E   E   E   E      E   E   E   E   E   E   E   E   
----------------------------------|----------------------------------|
----------------------------------|----------------------------------|
----------------------------------|----------------------------------|
----------------------------------|----------------------------------|
--10--10--12--10--10--10--12--10--|--10--10--12--10--10--10--12--10--|
---8---8---8---8---8---8---8---8--|---8---8---8---8---8---8---8---8--|


   PM  PM  PM  PM  PM  PM  PM  PM     PM  PM  PM  PM  PM  PM  PM  PM  
   E   E   E   E   E   E   E   E      E   E   E   E   E   E   E   E   
----------------------------------|----------------------------------|
----------------------------------|----------------------------------|
----------------------------------|----------------------------------|
----------------------------------|----------------------------------|
--10--10--12--10--10--10--12--10--|--10--10--12--10--10--10--12--10--|
---8---8---8---8---8---8---8---8--|---8---8---8---8---8---8---8---8--|


   PM  PM  PM  PM  PM  PM  PM  PM     PM  PM  PM  PM  PM  PM  PM  PM  
   E   E   E   E   E   E   E   E      E   E   E   E   E   E   E   E   
----------------------------------|----------------------------------|
----------------------------------|----------------------------------|
----------------------------------|----------------------------------|
----------------------------------|----------------------------------|
--10--10--12--10--10--10--12--10--|--10--10--12--10--10--10--12--10--|
---8---8---8---8---8---8---8---8--|---8---8---8---8---8---8---8---8--|


         PM  PM        PM  PM           PM  PM        PM  PM  
   Q     E   E   Q     E   E      Q     E   E   Q     E   E   
------------------------------|------------------------------|
------------------------------|------------------------------|
--10------------10------------|--10------------10------------|
--10----12--10--10----12--10--|--10----12--10--10----12--10--|
---8-----8---8---8-----8---8--|---8-----8---8---8-----8---8--|
------------------------------|------------------------------|


         PM  PM        PM  PM           PM  PM        PM  PM  
   Q     E   E   Q     E   E      Q     E   E   Q     E   E   
------------------------------|------------------------------|
------------------------------|------------------------------|
--10------------10------------|--10------------10------------|
--10----12--10--10----12--10--|--10----12--10--10----12--10--|
---8-----8---8---8-----8---8--|---8-----8---8---8-----8---8--|
------------------------------|------------------------------|


   PM  PM  PM  PM  PM  PM  PM  PM     PM  PM  PM  PM  PM  PM  PM  PM  
   E   E   E   E   E   E   E   E      E   E   E   E   E   E   E   E   
----------------------------------|----------------------------------|
----------------------------------|----------------------------------|
----------------------------------|----------------------------------|
----------------------------------|----------------------------------|
--10--10--12--10--10--10--12--10--|--10--10--12--10--10--10--12--10--|
---8---8---8---8---8---8---8---8--|---8---8---8---8---8---8---8---8--|


   PM  PM  PM  PM  PM  PM  PM  PM     PM  PM  PM  PM  PM  PM  PM  PM  
   E   E   E   E   E   E   E   E      E   E   E   E   E   E   E   E   
----------------------------------|----------------------------------|
----------------------------------|----------------------------------|
----------------------------------|----------------------------------|
----------------------------------|----------------------------------|
--10--10--12--10--10--10--12--10--|--10--10--12--10--10--10--12--10--|
---8---8---8---8---8---8---8---8--|---8---8---8---8---8---8---8---8--|


  E  E  E  E  E  E  E  E     E  E  E  E  E  E  E  E   
--------------------------|--------------------------|
--------------------------|--------------------------|
--------------------------|--------------------------|
--------------------------|--------------------------|
--5--5--7--5--5--5--7--5--|--5--5--7--5--5--5--7--5--|
--3--3--3--3--3--3--3--3--|--3--3--3--3--3--3--3--3--|


  E  E  E  E  E  E  E  E     E  E  E  E  E  E  E  E   
--------------------------|--------------------------|
--------------------------|--------------------------|
--------------------------|--------------------------|
--------------------------|--------------------------|
--3--3--5--3--3--3--5--3--|--3--3--5--3--3--3--5--3--|
--1--1--1--1--1--1--1--1--|--1--1--1--1--1--1--1--1--|


   PM  PM  PM  PM                    PM  PM  PM  PM                 
   E   E   E   E   E   E   E  E      E   E   E   E   E   E   E  E   
---------------------------------|---------------------------------|
---------------------------------|---------------------------------|
--------------------------10--8--|--------------------------10--8--|
----------------------10--10--8--|----------------------10--10--8--|
--10--10--10--10--10--10---------|--10--10--10--10--10--10---------|
---8---8---8---8---8---8---------|---8---8---8---8---8---8---------|


   PM  PM  PM  PM                    PM  PM  PM  PM                 
   E   E   E   E   E   E   E  E      E   E   E   E   E   E   E  E   
---------------------------------|---------------------------------|
---------------------------------|---------------------------------|
--------------------------10--8--|--------------------------10--8--|
----------------------10--10--8--|----------------------10--10--8--|
--10--10--10--10--10--10---------|--10--10--10--10--10--10---------|
---8---8---8---8---8---8---------|---8---8---8---8---8---8---------|


  E  E  E  E  E  E  E  E     E  E  E  E  E  E  E  E   
--------------------------|--------------------------|
--------------------------|--------------------------|
--------------------------|--------------------------|
--------------------------|--------------------------|
--5--5--7--5--5--5--7--5--|--5--5--7--5--5--5--7--5--|
--3--3--3--3--3--3--3--3--|--3--3--3--3--3--3--3--3--|


  E  E  E  E  E  E  E  E     E  E  E  E  E  E  E  E   
--------------------------|--------------------------|
--------------------------|--------------------------|
--------------------------|--------------------------|
--------------------------|--------------------------|
--3--3--5--3--3--3--5--3--|--3--3--5--3--3--3--5--3--|
--1--1--1--1--1--1--1--1--|--1--1--1--1--1--1--1--1--|


   E   E    E   E   E   E   E   E      E   E    E   E   E   E   E   E   
-----------------------------------|-----------------------------------|
-----------------------------------|-----------------------------------|
-----------------------------------|-----------------------------------|
-----------------------------------|-----------------------------------|
--10--10--/10--10---L--10--10--10--|--10--10--/10--10---L--10--10--10--|
---8---8---/8---8---L---8---8---8--|---8---8---/8---8---L---8---8---8--|


   E   E    E   E   E   E   E   E      E   E    E   E   E   E   E   E   
-----------------------------------|-----------------------------------|
-----------------------------------|-----------------------------------|
-----------------------------------|-----------------------------------|
-----------------------------------|-----------------------------------|
--10--10--/10--10---L--10--10--10--|--10--10--/10--10---L--10--10--10--|
---8---8---/8---8---L---8---8---8--|---8---8---/8---8---L---8---8---8--|


  E  E  E  E  E  E  E  E     E  E  E  E  E  E  E  E   
--------------------------|--------------------------|
--------------------------|--------------------------|
--------------------------|--------------------------|
--------------------------|--------------------------|
--5--5--7--5--5--5--7--5--|--5--5--7--5--5--5--7--5--|
--3--3--3--3--3--3--3--3--|--3--3--3--3--3--3--3--3--|


  E  E  E  E  E  E  E  E     E  E  E  E  E  E  E  E   
--------------------------|--------------------------|
--------------------------|--------------------------|
--------------------------|--------------------------|
--------------------------|--------------------------|
--3--3--5--3--3--3--5--3--|--3--3--5--3--3--3--5--3--|
--1--1--1--1--1--1--1--1--|--1--1--1--1--1--1--1--1--|


   E   E    E   E   E   E   E   E      E   E    E   E   E   E   E   E   
-----------------------------------|-----------------------------------|
-----------------------------------|-----------------------------------|
-----------------------------------|-----------------------------------|
-----------------------------------|-----------------------------------|
--10--10--/10--10---L--10--10--10--|--10--10--/10--10---L--10--10--10--|
---8---8---/8---8---L---8---8---8--|---8---8---/8---8---L---8---8---8--|


   E   E    E   E   E   E   E   E      E   E    E   E   E   E   E   E   
-----------------------------------|-----------------------------------|
-----------------------------------|-----------------------------------|
-----------------------------------|-----------------------------------|
-----------------------------------|-----------------------------------|
--10--10--/10--10---L--10--10--10--|--10--10--/10--10---L--10--10--10--|
---8---8---/8---8---L---8---8---8--|---8---8---/8---8---L---8---8---8--|


  E  E  E  E  E  E  E  E     E  E  E  E  E  E  E  E   
--------------------------|--------------------------|
--------------------------|--------------------------|
--------------------------|--------------------------|
--------------------------|--------------------------|
--5--5--7--5--5--5--7--5--|--5--5--7--5--5--5--7--5--|
--3--3--3--3--3--3--3--3--|--3--3--3--3--3--3--3--3--|


  E  E  E  E  E  E  E  E     E  E  E  E  E  E  E  E   
--------------------------|--------------------------|
--------------------------|--------------------------|
--------------------------|--------------------------|
--------------------------|--------------------------|
--3--3--5--3--3--3--5--3--|--3--3--5--3--3--3--5--3--|
--1--1--1--1--1--1--1--1--|--1--1--1--1--1--1--1--1--|


   E   E    E   E   E   E   E   E      E   E    E   E   E   E   E   E   
-----------------------------------|-----------------------------------|
-----------------------------------|-----------------------------------|
-----------------------------------|-----------------------------------|
-----------------------------------|-----------------------------------|
--10--10--/10--10---L--10--10--10--|--10--10--/10--10---L--10--10--10--|
---8---8---/8---8---L---8---8---8--|---8---8---/8---8---L---8---8---8--|


   E   E    E   E   E   E   E   E      E   E    E   E   E   E   E   E   
-----------------------------------|-----------------------------------|
-----------------------------------|-----------------------------------|
-----------------------------------|-----------------------------------|
-----------------------------------|-----------------------------------|
--10--10--/10--10---L--10--10--10--|--10--10--/10--10---L--10--10--10--|
---8---8---/8---8---L---8---8---8--|---8---8---/8---8---L---8---8---8--|


  E  E  E  E  E  E  E  E     E  E  E  E  E  E  E  E   
--------------------------|--------------------------|
--------------------------|--------------------------|
--------------------------|--------------------------|
--------------------------|--------------------------|
--5--5--7--5--5--5--7--5--|--5--5--7--5--5--5--7--5--|
--3--3--3--3--3--3--3--3--|--3--3--3--3--3--3--3--3--|


  E  E  E  E  E  E  E  E     E  E  E  E  E  E  E  E   
--------------------------|--------------------------|
--------------------------|--------------------------|
--------------------------|--------------------------|
--------------------------|--------------------------|
--3--3--5--3--3--3--5--3--|--3--3--5--3--3--3--5--3--|
--1--1--1--1--1--1--1--1--|--1--1--1--1--1--1--1--1--|


   |-----6-----|     |-----6-----|       |----6----|    |----6----|     
   Q     Q     Q     Q     Q     Q       Q    Q    Q    Q    Q    Q     
--------------------------------------|--------------------------------|
--------------------------------------|--------------------------------|
--------------------------------------|--------------------------------|
--------------------------------------|--------------------------------|
--10----10----10----10----10----10----|--8----8----8----8----8----8----|
---8-----8-----8-----8-----8-----8----|--6----6----6----6----6----6----|


   W                    W                  
--------------------|--------------------||
--------------------|--------------------||
--------------------|--------------------||
--10----------------|---L----------------||
--10----------------|---L----------------||
---8----------------|---L----------------||




Gtr.2                                   


     W                   W                   W                 
E||-------------------|-------------------|-------------------|
B||-------------------|-------------------|-------------------|
G||-------------------|-------------------|-------------------|
D||-------------------|-------------------|-------------------|
A||-------------------|-------------------|-------------------|
E||-------------------|-------------------|-------------------|


  W                     W                   W                 
-------------------||--------------------|-------------------|
-------------------||--------------------|-------------------|
-------------------||*-------------------|-------------------|
-------------------||*-------------------|-------------------|
-------------------||--------------------|-------------------|
-------------------||--------------------|-------------------|


  W                   W                   W                   W                 
-------------------|-------------------|-------------------|-------------------|
-------------------|-------------------|-------------------|-------------------|
-------------------|-------------------|-------------------|-------------------|
-------------------|-------------------|-------------------|-------------------|
-------------------|-------------------|-------------------|-------------------|
-------------------|-------------------|-------------------|-------------------|


  W                   W                   W                   W                 
-------------------|-------------------|-------------------|-------------------|
-------------------|-------------------|-------------------|-------------------|
-------------------|-------------------|-------------------|-------------------|
-------------------|-------------------|-------------------|-------------------|
-------------------|-------------------|-------------------|-------------------|
-------------------|-------------------|-------------------|-------------------|


  W                   W                   W                   W                 
-------------------|-------------------|-------------------|-------------------|
-------------------|-------------------|-------------------|-------------------|
-------------------|-------------------|-------------------|-------------------|
-------------------|-------------------|-------------------|-------------------|
-------------------|-------------------|-------------------|-------------------|
-------------------|-------------------|-------------------|-------------------|


  W                   W                     W                 
-------------------|--------------------||-------------------|
-------------------|--------------------||-------------------|
-------------------|-------------------*||-------------------|
-------------------|-------------------*||-------------------|
-------------------|--------------------||-------------------|
-------------------|--------------------||-------------------|


  W                   W                   W                   W                 
-------------------|-------------------|-------------------|-------------------|
-------------------|-------------------|-------------------|-------------------|
-------------------|-------------------|-------------------|-------------------|
-------------------|-------------------|-------------------|-------------------|
-------------------|-------------------|-------------------|-------------------|
-------------------|-------------------|-------------------|-------------------|


  W                   W                   W                   W                 
-------------------|-------------------|-------------------|-------------------|
-------------------|-------------------|-------------------|-------------------|
-------------------|-------------------|-------------------|-------------------|
-------------------|-------------------|-------------------|-------------------|
-------------------|-------------------|-------------------|-------------------|
-------------------|-------------------|-------------------|-------------------|


  W                   W                   W                   W                 
-------------------|-------------------|-------------------|-------------------|
-------------------|-------------------|-------------------|-------------------|
-------------------|-------------------|-------------------|-------------------|
-------------------|-------------------|-------------------|-------------------|
-------------------|-------------------|-------------------|-------------------|
-------------------|-------------------|-------------------|-------------------|


  W                   W                   W                 
-------------------|-------------------|-------------------|
-------------------|-------------------|-------------------|
-------------------|-------------------|-------------------|
-------------------|-------------------|-------------------|
-------------------|-------------------|-------------------|
-------------------|-------------------|-------------------|


                  W                                               
   Q     E    E   Q     E   E      E   E   E   E   E   Q      E   
-------------------------------|---------------------------------|
-------------13--13----13------|--13--13--13--13--16--13~----13--|
--15-----Lb----------------15--|---------------------------------|
-------------------------------|---------------------------------|
-------------------------------|---------------------------------|
-------------------------------|---------------------------------|


                                               W            
   Q     E    E   Q     E   E      E   E   E   H        E   
-------------------------------|---------------------------|
-------------13--13----13------|--13--13--13--16-----------|
--15-----Lb----------------15--|---------------------------|
-------------------------------|---------------------------|
-------------------------------|---------------------------|
-------------------------------|---------------------------|


                  W                                               
   Q     E    E   Q     E   E      E   E   E   E   E   Q      E   
-------------------------------|---------------------------------|
-------------13--13----13------|--13--13------13--16--13~----13--|
--15-----Lb----------------15--|----------15---------------------|
-------------------------------|---------------------------------|
-------------------------------|---------------------------------|
-------------------------------|---------------------------------|


                                               W               
   Q     E    E   Q     E   E      E   E   E   Q.      E   E   
-------------------------------|------------------------------|
-------------13--13----13------|--13--13--13--16------16--13--|
--15-----Lb----------------15--|------------------------------|
-------------------------------|------------------------------|
-------------------------------|------------------------------|
-------------------------------|------------------------------|


   |------3-----|      |------3-----|                 |---3---|                 
   Q      Q     Q      Q     Q      Q        E    E   E   E   E   Q     E   E   
-----------------------------------------|-------------------------------------|
--16b----16----16b----16----16b----16----|--16b---L--13------13--13----16--13--|
-----------------------------------------|---------------15--------------------|
-----------------------------------------|-------------------------------------|
-----------------------------------------|-------------------------------------|
-----------------------------------------|-------------------------------------|


   |------3-----|      |------3-----|     
   Q      Q     Q      Q     Q      Q     
-----------------------------------------|
--16b----16----16b----16----16b----16----|
-----------------------------------------|
-----------------------------------------|
-----------------------------------------|
-----------------------------------------|


   |------3-----|      |------3-----|                                     
   Q      Q     Q      Q     Q      Q        Q     Q      E   E   E   E   
-----------------------------------------|---------------18--------------|
--16b----16----16b----16----16b----16----|--18-----Lb--------18---L--16--|
-----------------------------------------|-------------------------------|
-----------------------------------------|-------------------------------|
-----------------------------------------|-------------------------------|
-----------------------------------------|-------------------------------|


   E   E   E   E   Q      E   E       E   E   E    Q      E    E   E    
---------------------------------|-----------18b--18b----18b--18--18b--|
--18------16--18--16~------------|-------16----------------------------|
------17-----------------17--16--|--/17--------------------------------|
---------------------------------|-------------------------------------|
---------------------------------|-------------------------------------|
---------------------------------|-------------------------------------|


                                                   |---3---|   |---3---|   
   E    E    E   Q     Q     E      E   Q      E   E   E   E   E   E   E   
--18b--18b--18--18b-------------|-------------18--------------------------|
-----------------------------x--|--18---Lb--------18---L--16--18--16------|
--------------------------------|-------------------------------------17--|
--------------------------------|-----------------------------------------|
--------------------------------|-----------------------------------------|
--------------------------------|-----------------------------------------|


   E   E   E   Q     E   E   E      Q.       Q.       E   E   
--------------------------------|--18b------18b------18--15--|
--16--------------------16--16--|----------------------------|
--------------------------------|----------------------------|
------17--17--17----17----------|----------------------------|
--------------------------------|----------------------------|
--------------------------------|----------------------------|


   |---3---|                                                 
   E   E   E   E   E   E    E   E   E      W                 
--18--15------15-----------------------|--------------------|
----------18------18---Lb--16--18------|--------------------|
-----------------------------------17--|---L----------------|
---------------------------------------|--------------------|
---------------------------------------|--------------------|
---------------------------------------|--------------------|


  W                   W                   W                   W                 
-------------------|-------------------|-------------------|-------------------|
-------------------|-------------------|-------------------|-------------------|
-------------------|-------------------|-------------------|-------------------|
-------------------|-------------------|-------------------|-------------------|
-------------------|-------------------|-------------------|-------------------|
-------------------|-------------------|-------------------|-------------------|


  W                   W                   W                   W                 
-------------------|-------------------|-------------------|-------------------|
-------------------|-------------------|-------------------|-------------------|
-------------------|-------------------|-------------------|-------------------|
-------------------|-------------------|-------------------|-------------------|
-------------------|-------------------|-------------------|-------------------|
-------------------|-------------------|-------------------|-------------------|


  W                   W                   W                   W                 
-------------------|-------------------|-------------------|-------------------|
-------------------|-------------------|-------------------|-------------------|
-------------------|-------------------|-------------------|-------------------|
-------------------|-------------------|-------------------|-------------------|
-------------------|-------------------|-------------------|-------------------|
-------------------|-------------------|-------------------|-------------------|


  W                   W                   W                   W                 
-------------------|-------------------|-------------------|-------------------|
-------------------|-------------------|-------------------|-------------------|
-------------------|-------------------|-------------------|-------------------|
-------------------|-------------------|-------------------|-------------------|
-------------------|-------------------|-------------------|-------------------|
-------------------|-------------------|-------------------|-------------------|


  W                   W                   W                   W                 
-------------------|-------------------|-------------------|-------------------|
-------------------|-------------------|-------------------|-------------------|
-------------------|-------------------|-------------------|-------------------|
-------------------|-------------------|-------------------|-------------------|
-------------------|-------------------|-------------------|-------------------|
-------------------|-------------------|-------------------|-------------------|


  W                   W                   W                   W                 
-------------------|-------------------|-------------------|-------------------|
-------------------|-------------------|-------------------|-------------------|
-------------------|-------------------|-------------------|-------------------|
-------------------|-------------------|-------------------|-------------------|
-------------------|-------------------|-------------------|-------------------|
-------------------|-------------------|-------------------|-------------------|


  W                   W                   W                   W                 
-------------------|-------------------|-------------------|-------------------|
-------------------|-------------------|-------------------|-------------------|
-------------------|-------------------|-------------------|-------------------|
-------------------|-------------------|-------------------|-------------------|
-------------------|-------------------|-------------------|-------------------|
-------------------|-------------------|-------------------|-------------------|


  W                   W                   W                   W                 
-------------------|-------------------|-------------------|-------------------|
-------------------|-------------------|-------------------|-------------------|
-------------------|-------------------|-------------------|-------------------|
-------------------|-------------------|-------------------|-------------------|
-------------------|-------------------|-------------------|-------------------|
-------------------|-------------------|-------------------|-------------------|


  W                   W                   W                  
-------------------|-------------------|-------------------||
-------------------|-------------------|-------------------||
-------------------|-------------------|-------------------||
-------------------|-------------------|-------------------||
-------------------|-------------------|-------------------||
-------------------|-------------------|-------------------||




Duration Legend
---------------
W - whole
H - half
Q - quarter
E - 8th
S - 16th
T - 32nd
X - 64th
. - note dotted
|-n-|  - n-tuplets


Tablature Legend
----------------
L - tied note
x - dead note
g - grace note
(n) - ghost note
> - accentuded note
NH - natural harmonic
AH - artificial harmonic
TH - tapped harmonic
SH - semi harmonic
PH - pitch harmonic
h - hammer on
p - pull off
b - bend
br - bendRelease
pb - preBend
pbr - preBendRelease
brb - bendReleaseBend
\n/ - tremolo bar dip
\n - tremolo bar dive
-/n - tremolo bar Release up
/n\ - tremolo bar inverted dip
/n - tremolo bar return
-\n - tremolo bar Release down
S - shift slide
s - legato slide
/ -  slide into from below or out of upwards
\ -  slide into from above or out of downwards
~ - vibrato
W - wide vibrato
tr - trill
TP - tremolo picking
T - tapping
S - slap
P - pop
< - fade in
^ - brush up
v - brush down





Comments


Popular Hurriganes tabs & chords
An Awful Crime Chords
My Only One Chords
Hey Groopie Intro Tabs
I Will Stay 3 Tabs
I Will Stay Intro Tabs
In The Nude Tabs
Mary Jane Tabs
Miss Betty Tabs
Woo-oo-oo-oo-o Live Tabs
Get On Ukulele


Song lyrics



↑ Back to top | Tablatures and chords are parodies/interpretations of the original songs. You may use it for private study, scholarship, research or language learning purposes only
© 2014 AZChords.com Contact us | Privacy policy | DMCA | Add/correct tabs | Request tabs | Top 50 tabs