» » »

11th Street Boogie Tabs (ver.1)

Artists:  A B C D E F G H I J K L M N O P Q R S T U V W X Y Z # 

11th Street Boogie Tabs (ver.1)

Hurriganes
Rating:
5/5 (1 vote)

Hard to play? Try these video lessons and learn fast.
                -------------------------------------------------------------------------------
Hurriganes-11st Street Boogie
Live in Stockholm 1977
-------------------------------------------------------------------------------

Intro
e|---------------------------------------------------------------------------|
B|---------------------------------------------------------------------------|
G|--5-5-5-5-5-5-5-5-5-5-5-5--------------------------------------------------|
D|--5-5-5-5-5-5-5-5-5-5-5-5-7-7-7-7-7-7-7-7-7-7-7-7--------------------------|
A|--3-3-3-3-3-3-3-3-3-3-3-3-7-7-7-7-7-7-7-7-7-7-7-7--------------------------|
E|--------------------------5-5-5-5-5-5-5-5-5-5-5-5--------------------------|

e|---------------------------------------------------------------------------|
B|---------------------------------------------------------------------------|
G|--7-7-7-7-7-7-7-7-7-7-7-7--------------------------------------------------|
D|--7-7-7-7-7-7-7-7-7-7-7-7-5-5-5-5-5-5-5-5-5-5-5-5--------------------------|
A|--5-5-5-5-5-5-5-5-5-5-5-5-5-5-5-5-5-5-5-5-5-5-5-5--------------------------|
E|--------------------------3-3-3-3-3-3-3-3-3-3-3-3--------------------------|

Verse
e|---------------------------------------------------------------------------|
B|---------------------------------------------------------------------------|
G|--5-5-5-5-5-5-5-5-5-5-5-5--------------------------------------------------|
D|--5-5-5-5-5-5-5-5-5-5-5-5-7-7-7-7-7-7-7-7-7-7-7-7--------------------------|
A|--3-3-3-3-3-3-3-3-3-3-3-3-7-7-7-7-7-7-7-7-7-7-7-7--------------------------|
E|--------------------------5-5-5-5-5-5-5-5-5-5-5-5--------------------------|

e|---------------------------------------------------------------------------|
B|---------------------------------------------------------------------------|
G|--7-7-7-7-7-7-7-7-7-7-7-7--------------------------------------------------|
D|--7-7-7-7-7-7-7-7-7-7-7-7-5-5-5-5-5-5-5-5-5-5-5-5--------------------------|
A|--5-5-5-5-5-5-5-5-5-5-5-5-5-5-5-5-5-5-5-5-5-5-5-5--------------------------|
E|--------------------------3-3-3-3-3-3-3-3-3-3-3-3--------------------------|

e|---------------------------------------------------------------------------|
B|---------------------------------------------------------------------------|
G|--5-5-5-5-5-5-5-5-5-5-5-5--------------------------------------------------|
D|--5-5-5-5-5-5-5-5-5-5-5-5-7-7-7-7-7-7-7-7-7-7-7-7--------------------------|
A|--3-3-3-3-3-3-3-3-3-3-3-3-7-7-7-7-7-7-7-7-7-7-7-7--------------------------|
E|--------------------------5-5-5-5-5-5-5-5-5-5-5-5--------------------------|

e|---------------------------------------------------------------------------|
B|---------------------------------------------------------------------------|
G|--7-7-7-7-7-7-7-7-7-7-7-7--------------------------------------------------|
D|--7-7-7-7-7-7-7-7-7-7-7-7-5-5-5-5-5-5-5-5-5-5-5-5---6----------------------|
A|--5-5-5-5-5-5-5-5-5-5-5-5-5-5-5-5-5-5-5-5-5-5-5-5---6----------------------|
E|--------------------------3-3-3-3-3-3-3-3-3-3-3-3---4----------------------|

Bridge

e|---------------------------------------------------------------------------|
B|-----------5--6-5-6-5------------------------------------------------------|
G|-----------5--5-5-5-5--7---------------------------------------------------|
D|---7---7---5--5-5-5-5--7--5-5-5-5-5-5-5-5-5-5-5-5-5-5-6--------------------|
A|---7---7---3--3-3-3-3--5--5-5-5-5-5-5-5-5-5-5-5-5-5-5-6--------------------|
E|---5---5------------------3-3-3-3-3-3-3-3-3-3-3-3-3-3-4--------------------|

e|---------------------------------------------------------------------------|
B|-----------5--6-5-6-5------12-12-12-12-12-12-12-12-12-12-12-12-12-12-12----|
G|-----------5--5-5-5-5--7---12-12-12-12-12-12-12-12-12-12-12-12-12-12-12----|
D|---7---7---5--5-5-5-5--7---12-12-12-12-12-12-12-12-12-12-12-12-12-12-12----|
A|---7---7---3--3-3-3-3--5---10-10-10-10-10-10-10-10-10-10-10-10-10-10-10----|
E|---5---5-------------------------------------------------------------------|

Solo

e|------------------------------------------------15-------------------------|
B|---15b17-15b17-15b17-15b17r15-13----15b17-15b17----15b17-15b17r15-13-------|
G|---------------------------------14----------------------------------14----|
D|---------------------------------------------------------------------------|
A|---------------------------------------------------------------------------|
E|---------------------------------------------------------------------------|

e|-----------------15--------------------------------------------------------|
B|--15b17r15-15b17----17r15-13-------------13-15b17r15-13--------------------|
G|-----------------------------14\12-12-14----------------14-12--------------|
D|--------------------------------------------------------------14\----------|
A|---------------------------------------------------------------------------|
E|---------------------------------------------------------------------------|

Verse

e|---------------------------------------------------------------------------|
B|---------------------------------------------------------------------------|
G|--5-5-5-5-5-5-5-5-5-5-5-5--------------------------------------------------|
D|--5-5-5-5-5-5-5-5-5-5-5-5-7-7-7-7-7-7-7-7-7-7-7-7--------------------------|
A|--3-3-3-3-3-3-3-3-3-3-3-3-7-7-7-7-7-7-7-7-7-7-7-7--------------------------|
E|--------------------------5-5-5-5-5-5-5-5-5-5-5-5--------------------------|

e|---------------------------------------------------------------------------|
B|---------------------------------------------------------------------------|
G|--7-7-7-7-7-7-7-7-7-7-7-7--------------------------------------------------|
D|--7-7-7-7-7-7-7-7-7-7-7-7-5-5-5-5-5-5-5-5-5-5-5-5--------------------------|
A|--5-5-5-5-5-5-5-5-5-5-5-5-5-5-5-5-5-5-5-5-5-5-5-5--------------------------|
E|--------------------------3-3-3-3-3-3-3-3-3-3-3-3--------------------------|

e|---------------------------------------------------------------------------|
B|---------------------------------------------------------------------------|
G|--5-5-5-5-5-5-5-5-5-5-5-5--------------------------------------------------|
D|--5-5-5-5-5-5-5-5-5-5-5-5-7-7-7-7-7-7-7-7-7-7-7-7--------------------------|
A|--3-3-3-3-3-3-3-3-3-3-3-3-7-7-7-7-7-7-7-7-7-7-7-7--------------------------|
E|--------------------------5-5-5-5-5-5-5-5-5-5-5-5--------------------------|

e|---------------------------------------------------------------------------|
B|---------------------------------------------------------------------------|
G|--7-7-7-7-7-7-7-7-7-7-7-7--------------------------------------------------|
D|--7-7-7-7-7-7-7-7-7-7-7-7-5-5-5-5-5-5-5-5-5-5-5-5---6----------------------|
A|--5-5-5-5-5-5-5-5-5-5-5-5-5-5-5-5-5-5-5-5-5-5-5-5---6----------------------|
E|--------------------------3-3-3-3-3-3-3-3-3-3-3-3---4----------------------|

Bridge

e|---------------------------------------------------------------------------|
B|-----------5--6-5-6-5------------------------------------------------------|
G|-----------5--5-5-5-5--7---------------------------------------------------|
D|---7---7---5--5-5-5-5--7--5-5-5-5-5-5-5-5-5-5-5-5-5-5-6--------------------|
A|---7---7---3--3-3-3-3--5--5-5-5-5-5-5-5-5-5-5-5-5-5-5-6--------------------|
E|---5---5------------------3-3-3-3-3-3-3-3-3-3-3-3-3-3-4--------------------|

e|---------------------------------------------------------------------------|
B|-----------5--6-5-6-5------12-12-12-12-12-12-12-12-12-12-12-12-12-12-12----|
G|-----------5--5-5-5-5--7---12-12-12-12-12-12-12-12-12-12-12-12-12-12-12----|
D|---7---7---5--5-5-5-5--7---12-12-12-12-12-12-12-12-12-12-12-12-12-12-12----|
A|---7---7---3--3-3-3-3--5---10-10-10-10-10-10-10-10-10-10-10-10-10-10-10----|
E|---5---5-------------------------------------------------------------------|

Verse

e|---------------------------------------------------------------------------|
B|---------------------------------------------------------------------------|
G|--5-5-5-5-5-5-5-5-5-5-5-5--------------------------------------------------|
D|--5-5-5-5-5-5-5-5-5-5-5-5-7-7-7-7-7-7-7-7-7-7-7-7--------------------------|
A|--3-3-3-3-3-3-3-3-3-3-3-3-7-7-7-7-7-7-7-7-7-7-7-7--------------------------|
E|--------------------------5-5-5-5-5-5-5-5-5-5-5-5--------------------------|

e|---------------------------------------------------------------------------|
B|---------------------------------------------------------------------------|
G|--7-7-7-7-7-7-7-7-7-7-7-7--------------------------------------------------|
D|--7-7-7-7-7-7-7-7-7-7-7-7-5-5-5-5-5-5-5-5-5-5-5-5--------------------------|
A|--5-5-5-5-5-5-5-5-5-5-5-5-5-5-5-5-5-5-5-5-5-5-5-5--------------------------|
E|--------------------------3-3-3-3-3-3-3-3-3-3-3-3--------------------------|

e|---------------------------------------------------------------------------|
B|---------------------------------------------------------------------------|
G|--5-5-5-5-5-5-5-5-5-5-5-5--------------------------------------------------|
D|--5-5-5-5-5-5-5-5-5-5-5-5-7-7-7-7-7-7-7-7-7-7-7-7--------------------------|
A|--3-3-3-3-3-3-3-3-3-3-3-3-7-7-7-7-7-7-7-7-7-7-7-7--------------------------|
E|--------------------------5-5-5-5-5-5-5-5-5-5-5-5--------------------------|

e|---------------------------------------------------------------------------|
B|----------------------------------------------------5--5-------------------|
G|--7-7-7-7-7-7-7-7-7-7-7-7---------------------------5--5-------------------|
D|--7-7-7-7-7-7-7-7-7-7-7-7-5-5-5-5-5-5-5-5-5-5-5-5---5--5-------------------|
A|--5-5-5-5-5-5-5-5-5-5-5-5-5-5-5-5-5-5-5-5-5-5-5-5---3--3-------------------|
E|--------------------------3-3-3-3-3-3-3-3-3-3-3-3--------------------------|
            
Hard to play? Try these video lessons and learn fast. | Correct




comments powered by Disqus
↑ Back to top | Tablatures and chords are parodies/interpretations of the original songs. You may use it for private study, scholarship, research or language learning purposes only