>
 >
This Town

This Town Bass Tabs

Hot Hot Heat - This Town chords, tabs, tablatures, lyrics

Guitar lessons | Add/correct | Request | Top 50 tabs Artists:  A B C D E F G H I J K L M N O P Q R S T U V W X Y Z 0-9

This Town Bass Tabs – Hot Hot Heat

CD, Sheet music, Poster

Do you like This Town? Share with your friends now
Bass TabsBass Tabs v2
Band - Hot Hot Heat
Song - This Town

Intro:
G--------------|---------------|
D--------------|---------------|
A--------------|-----------6-6-|
E--------------|---------------|

Verse:
G------------------|------------------|
D------------------|------------------|
A-6----------------|--------------6-6-|
E---6--6---6--6--6-|-6--6---6--6------|

G------------------|------------------|
D------------------|--------------4-4-|
A-6----------------|------------------|
E---6--6---6--6--6-|-6--6---6--6------|

G--------------------|------------------|
D-4-4----------------|--------------6-6-|
A-----4--4---4--4--4-|-4--4---4--4------|
E--------------------|------------------|

G-----------------|-----------------|
D-6---------------|-----------------|
A-----6-6-6-------|-----------------|
E-------------6-6-|-6(let ring)-----|

G-----------------|----------------------|
D-----------------|----------------------|
A-------------6-6-|-6-6------------------|
E-----------------|-----6--6---6--6--6-6-|

G------------------|--------------------|
D------------------|--------------------|
A--------------6-6-|-6-6----------------|
E-6--6---6--6------|-----6--6---6--6--6-|

G------------------|--------------------|
D--------------4-4-|-4-4----------------|
A------------------|-----4--4---4--4--4-|
E-6--6---6--6------|--------------------|

G------------------|-----------------|
D--------------6-6-|-6------6-6-6----|
A-4--4---4--4------|-----------------|
E------------------|-----------------|

Chorus:
G-----------------|---------------------|
D-----------------|---------------------|
A-6-6-6-6-6-6-6-6-|-6-6-6-6-6-6-6---6-6-|
E-----------------|---------------------|

Verse:
G--------------------|------------------|
D--------------------|------------------|
A-6------------------|--------------6-6-|
E---6--6---6--6--6-6-|-6--6---6--6------|

G--------------------|------------------|
D--------------------|--------------4-4-|
A-6------------------|------------------|
E---6--6---6--6--6---|-6--6---6--6------|

G--------------------|-------------------|
D-4-4----------------|----------6----6-6-|
A-----4--4---4--4--4-|-4--4---4---4------|
E--------------------|-------------------|

G--------------|
D-6----6-6-6---|
A--------------|
E--------------|

Chorus:
G-----------------|-----------------|
D-----------------|-----------------|
A-6-6-6-6-6-6-6-6-|-4-6-6-6-6-6-6-6-|
E-----------------|-----------------|

G-----------------|-----------------|
D-----------------|-----------------|
A-4-6-6-6-6-6-6-6-|4-6-6-6-6-6-6-6-6|
E-----------------|-----------------|

Interldue:
G-------------------------|-------------------------|
D------------8-8--8-------|-------------------------|
A-----5--------------5--6-|-----------------------3-| x3
E--6-----6----------------|--3--1--3---3-3--3--1----|

G---------|--------|------------------|--------------------|------------------|
D---------|--------|------------------|--------------------|------------------|
A-6-------|----6-6-|-6----------------|----------------6-6-|-6----------------|
E---------|--------|---6--6---6--6--6-|-6--6---6--6--------|---3--3---3--3--3-|

G------------------|------------------|--------------------|------------------|
D------------------|------------------|--------------------|------------------|
A--------------6-6-|-6----------------|----------------6-6-|-6----------------|
E-3--3---3--3------|---6--6---6--6--6-|-6--6---6--6--------|---3--3---3--3--3-|

G----------------|--------------|
D----------------|--------------|
A----------------|-6------------|
E-3--3---3--3--3-|--------------|

G-------------------------|-------------------------|
D------------8-8--8-------|-------------------------|
A-----5--------------5--6-|-----------------------3-| x3
E--6-----6----------------|--3--1--3---3-3--3--1----|

G-------------------| 
D-------------------| 
A-6-------------6-6-| 
E-------------------| 

G------------------|-------------------|------------------|-------------------|
D---8--8---8--8--8-|-8--8---8--8-------|---8--8---8--8--8-|-8--8---8--8-------|
A-6----------------|---------------6-6-|-6----------------|---------------6-6-| x3
E------------------|-------------------|------------------|-------------------|

G------------------|
D---8--8---8--8--8-|
A-6----------------|
E------------------|

Coda:
G--------------------|----------------|----------------|-------------------|
D--------------------|----------------|----------------|---------------4-4-|
A------------1--1--1-|-1--1---1--1--1-|-1--1---1--1--1-|-1--1---1--1-------|
E--------------------|----------------|----------------|-------------------|


G------------------|------------------|--------------------|
D-4----------------|--------------6-6-|-6----6-6-6---6-6-6-|
A---4--4---4--4--4-|-4--4---4--4------|--------------------|
E------------------|------------------|--------------------|

G-----------------|-----------------|-----------------|----------------|
D-----------------|-----------------|-----------------|----------------|
A-6-6-6-6-6-6-6-6-|-6-6-6-6-6-6-6-6-|-6-6-6-6-6-6-6-6-|6-6-6-6-6-6-6-6-|
E-----------------|-----------------|-----------------|----------------|

G------------------------|-------------------|
D-6-6-6------------------|-------------------|
A---------6-6-6----------|-------------------|
E------------------6-6-6-|-----------------6-|





Comments


Popular Hot Hot Heat tabs & chords
Talk To Me Dance With Me Bass Tabs
Get In Or Get Out Chords
So So Cold Chords
Bandages Tabs
Bandages 3 Tabs
Harmonicas And Tambourines Tabs
Middle Of Nowhere Intro Tabs
Middle Of Nowhere Ukulele
Outta Heart Ukulele
Save Us Sos Ukulele


Song lyrics



↑ Back to top | Tablatures and chords are parodies/interpretations of the original songs. You may use it for private study, scholarship, research or language learning purposes only
© 2014 AZChords.com Contact us | Privacy policy | DMCA | Add/correct tabs | Request tabs | Top 50 tabs