» » »

Hot Hot Heat, Middle Of Nowhere Tabs (ver.1)

Artists:  A B C D E F G H I J K L M N O P Q R S T U V W X Y Z # 

Middle Of Nowhere Tabs (ver.1)

Hot Hot Heat Tabs
Rating:
3/5 (6 votes)
Middle Of Nowhere lessons Tabs too difficult? Try these video lessons and learn fast
                Band: Hot Hot Heat



Tuning: Standard


Intro

e|-10-x-x-10-|-10-10-x-x-10-|-5-5-x-x-5-|-5-5-x-x-5-|
b|-10-x-x-10-|-10-10-x-x-10-|-5-5-x-x-5-|-5-5-x-x-5-|
g|-11-x-x-11-|-11-11-x-x-11-|-5-5-x-x-5-|-5-5-x-x-5-|
d|-12-x-x-12-|-12-12-x-x-12-|-7-7-x-x-7-|-7-7-x-x-7-|
a|-12-x-x-12-|-12-12-x-x-12-|-7-7-x-x-7-|-7-7-x-x-7-|
E|-10-x-x-10-|-10-10-x-x-10-|-5-5-x-x-5-|-5-5-x-x-5-|

e|-8--x-x-8--|-8--8--x-x-8--|
B|-8--x-x-8--|-8--8--x-x-8--|
G|-9--x-x-9--|-9--9--x-x-9--|
D|-10-x-x-10-|-10-10-x-x-10-|
A|-10-x-x-10-|-10-10-x-x-10-|
E|-8--x-x-8--|-8--8--x-x-8--|

e|-3--x-x-3--3-3-x-x-3--10-|
b|-3--x-x-3--3-3-x-x-3--10-|
g|-4--x-x-4--4-4-x-x-4--11-|
d|-5--x-x-5--5-5-x-x-5--12-|
a|-5--x-x-5--5-5-x-x-5--12-|
E|-3--x-x-3--3-3-x-x-3--10-|
                          Intro End

The verse is the same as the intro

Chorus
G(3 2 0 0 0 3) D(x x x 2 3 2) F(1 3 3 2 1 1) C(0 3 2 0 1 0)


     G                      D              F                          C
To give you something to go on    when I go off back to the middle of nowhere
To give you something to go on    when I go off back to the middle of nowhere


e|-10-x-x-10-|-10-10-x-x-10-|-5-5-x-x-5-|-5-5-x-x-5-|
b|-10-x-x-10-|-10-10-x-x-10-|-5-5-x-x-5-|-5-5-x-x-5-|
g|-11-x-x-11-|-11-11-x-x-11-|-5-5-x-x-5-|-5-5-x-x-5-|
d|-12-x-x-12-|-12-12-x-x-12-|-7-7-x-x-7-|-7-7-x-x-7-|
a|-12-x-x-12-|-12-12-x-x-12-|-7-7-x-x-7-|-7-7-x-x-7-|
E|-10-x-x-10-|-10-10-x-x-10-|-5-5-x-x-5-|-5-5-x-x-5-|

e|-8--x-x-8--|-8--8--x-x-8--|
B|-8--x-x-8--|-8--8--x-x-8--|
G|-9--x-x-9--|-9--9--x-x-9--|
D|-10-x-x-10-|-10-10-x-x-10-|
A|-10-x-x-10-|-10-10-x-x-10-|
E|-8--x-x-8--|-8--8--x-x-8--|

e|-3--x-x-3--3-3-x-x-3--10-|
b|-3--x-x-3--3-3-x-x-3--10-|
g|-4--x-x-4--4-4-x-x-4--11-|
d|-5--x-x-5--5-5-x-x-5--12-|
a|-5--x-x-5--5-5-x-x-5--12-|
E|-3--x-x-3--3-3-x-x-3--10-|

Chorus:

     G                      D              F                          C
To give you something to go on    when I go off back to the middle of nowhere
To give you something to go on    when I go off back to the middle of nowhere

Here is the solo:

e|-x--x-x-x-|-8-7-x-|-8-7-x-|-8-7-x-|-15-15-15-15-|-\13-13-13-13-|
B|-8--8-8-8-|-8-8-8-|-8-8-8-|-8-8-8-|-13-13-13-13-|-\12-12-12-12-|
G|-0--0-0-0-|-0-0-0-|-0-0-0-|-0-0-0-|-0--0--0--0--|--0--0--0--0--|
D|----------|-------|-------|-------|-------------|--------------|
A|----------|-------|-------|-------|-------------|--------------|
E|----------|-------|-------|-------|-------------|--------------|

e|-\12-12-12-12-|-\10-10-10--|-10-8-15-|-10-8-15-|-10-8-15-|-15-15-15-15-|
B|-\10-10-10-10-|-\8--8--8---|-8--8-12-|-8--8-12-|-8--8-12-|-12-12-12-12-|
G|--0--0--0--0--|--0--0--0---|-0--0-0--|-0--0-0--|-0--0-0--|-0--0--0--0--|
D|--------------|------------|---------|---------|---------|-------------|
A|--------------|------------|---------|---------|---------|-------------|
E|--------------|------------|---------|---------|---------|-------------|

e|-15----15----|
B|----15----15-|
G|-------------| x4
D|-------------|
A|-------------|
E|-------------|

Chorus:

     G                      D              F                          C
To give you something to go on    when I go off back to the middle of nowhere
To give you something to go on    when I go off back to the middle of nowhere
            

comments powered by Disqus
↑ Back to top | Hot Hot Heat Tabs for Middle Of Nowhere. Lyrics for acoustic guitar and electric guitar. Tablatures and chords are parodies/interpretations of the original songs. You may use it for private study, scholarship, research or language learning purposes only