» » »

Jingle Jangle Chords (ver.1)

Artists:  A B C D E F G H I J K L M N O P Q R S T U V W X Y Z # 

Jingle Jangle Chords (ver.1)

Hot Hot Heat
Rating:
4/5 (1 vote)

Tabs too difficult? Try these video lessons and learn fast.
                -------------------------------------------------------------------------------
-------------------------------------------------------------------------------

Tuning: Standard

This is a pretty easy song to play, feel free to muck around with variations of the 
I've given here, this is just a basic guide to play along with
Comments and questions are always welcome.

                 This is the verse...

        A           Bm              E               E
e|-------------------2------------------------------------------------------|
B|------2------------3------------------------------------------------------|
G|------2------------4--------------9---------------9-----------------------|
D|------2------------4--------------9---------------9-----------------------|
A|------0------------2--------------7---------------7-----------------------|
E|--------------------------------------------------------------------------|

   Watch your     Abandoned     Me to tell    Slipped &
   children..      Well...       if they..      Fell...


e|--------------------4-----------------------------------------------------|
B|------2-------------5----------2------------------------------------------|
G|------2-------------6----------2----------7---------------------6---------|
D|------2-------------6----------4----------7----------7----------6---------|
A|------0-------------4----------4----------5----------7----------4---------|
E|-------------------------------2---------------------5--------------------|
   I'm just a      Suitcase  in hand & the perfect plan that should pull me..
    salesman..


                    Then the CHORUS


e|---------5-----------------------------------5----------------------------|
B|---------5-----------------------------------5------------------7---------|
G|---------6-------------------7---------------6------------------8---------|
D|---------7-------------------7---------------7------------------9---------|
A|---------7-------------------5---------------7------------------9---------|
E|---------5-----------------------------------5------------------7---------|
    Another day,         Another smile,   This better not      end up
   another night..       another lie...    be all I got...       here?


So this is all you really need to know to play the song!

Enjoy.
===============================================================================
            
Tabs too difficult? Try these video lessons and learn fast.




comments powered by Disqus
↑ Back to top | Tablatures and chords are parodies/interpretations of the original songs. You may use it for private study, scholarship, research or language learning purposes only