» » »

Goodnight Goodnight Bass tabs (ver.2)

Artists:  A B C D E F G H I J K L M N O P Q R S T U V W X Y Z # 

Goodnight Goodnight Bass tabs (ver.2)

Hot Hot Heat
Rating:
0/5 (0 votes)

Hard to play? Try these video lessons and learn fast.
                
Tuning: EADG

intro
G|-----------------------------------------------------------------------------|
D|------10-----------------8---------------------------------------------------|
A|----------------8----------------10-------3------------1---------------------|
E|-------------------------------------------------1------------3/6------------|

verse
G|---------------------------------------------------------------------------------|
D|---------------------------------------------------------------------------------|
A|-33333333-----------11111111-----------33333333-----------111111111111111--------|
E|-----------11111111-----------33333333-----------11111111------------------------|

chorus
G|---------------------------------------------------------|
D|---------------------------------------------------------|
A|-----55555555---------------77777777---------------------|
E|-----------------33333333---------------55555555---------|

bridge/guitar solo
G|-----------------------------------------------------------------------------|
D|-----------------------------------------------------------------------------|
A|---55555555------------77777777--------5555-----------77777777---------------|
E|-------------33333333-------------5555-------33333333------------------------|

G|------------------------------------------------------------------------------|
D|------------------------------------------------------------------------------|
A|-----------------------55555555---------------------7777--------55555555------|
E|----5555555555555555------------3333333333333333--------5555------------------|

G|---------------------------------------|
D|---------------------------------------|
A|----------------------------75---------|
E|---33333333---55555555---3-----3-------|

Outro
G|---------------------|
D|---------------------|
A|----------------5----|
E|---5-5-5-5-5-5-------|

intro
verse
chorus
verse
chorus
bridge/guitar solo
chorus
outro

| /  slide up
| \  slide down
| h  hammer-on
| p  pull-off
| ~  vibrato
| +  harmonic
| x  Mute note
===============================================================================
            
Hard to play? Try these video lessons and learn fast. | Correct




comments powered by Disqus
↑ Back to top | Tablatures and chords are parodies/interpretations of the original songs. You may use it for private study, scholarship, research or language learning purposes only