>
 >
Back Breaker

Back Breaker Guitar Tabs

Hit The Lights - Back Breaker chords, tabs, tablatures, lyrics

Guitar lessons | Add/correct | Request | Top 50 tabs Artists:  A B C D E F G H I J K L M N O P Q R S T U V W X Y Z 0-9

Back Breaker Guitar Tabs – Hit The Lights

CD, Sheet music, Poster

Do you like Back Breaker? Share with your friends now
ChordsTabsTabs v2Tabs v3Ukulele
Okay this is the basics i got for this, i did'nt go into depth cos its and easy song to 
when you have the chords.

THERE IS NO STRUMMING PATTERN HERE. It's easy to figure yourself.

Have fun. :)

THIS IS IN HALF STEPED DROP D. AS THIS WAS A REQUESTED SONG, I CAN'T CHANGE TO IT.

Intro Riff.

E|-------------------------------------|
B|-------------------------------------|
G|-------------------------------------|
D|-------------------------------------|
A|-------5---7---5---7---9/7--5--------|
D|---0-0---0---0---0---0---------7-----|

E|-------------------------------------|
B|-------------------------------------|
G|-------------------------------------|
D|--------------------------------7----|
A|-------5---7---5---7---9/7--5--------|
D|---0-0---0---0---0---0---------------|

E|-------------------------------------|
B|-------------------------------------|
G|-------------------------------------|
D|-------------------------------------|
A|-------5---7---5---7---9/7--5--------|
D|---0-0---0---0---0---0---------7-----|

E|-------------------------------------|
B|-------------------------------------|
G|-------------------------------------|
D|--------------------5------7---------|
A|-------5---7---5----5---x--7---------|
D|---0-0---0---0---0--5---x--7---------|

X2


Verse: NO STRUMMING PATTERN HERE, EASY TO FIGURE OUT. Repeat intro riff over the top off -

E|-------------------------------------------|
B|-------------------------------------------|
G|-------------------------------------------|
D|--0----5----0-----5-----9---7---5---7------|
A|--0----5----0-----5-----9---7---5---7------|
D|--0----5----0-----5-----9---7---5---7------|


Chorus

E|------------------------|
B|------------------------|
G|------------------------|  X2
D|--7--x16----5-----------|
A|--5---------5--x16------|
D|--0---------5-----------|


Repeat Intro Riff.


Verse.


Chorus.

Break:


E|--------------|
B|--------------|
G|--------------|
D|--9--5--7--7--| X2
A|--9--5--7--7--|
E|--9--5--7--7--|


(nothing more than)
E|----------------|
B|----------------|
G|----------------|
D|--0---------5---|
A|--0---------5---|
E|--0---------5---|


Intro Riff Variation.

E|-------------------------------------|
B|-------------------------------------|
G|-------------------------------------|
D|-------------------------------------|
A|-------7---5------7---7---5----------|
D|---0-0---0---0-0----0---0-----5--5---|


E|-------------------------------------|
B|-------------------------------------|
G|-------------------------------------|
D|------------------------------5--5---|
A|-------7---5------7---7---5----------|
D|---0-0---0---0-0----0---0------------|


E|-------------------------------------|
B|-------------------------------------|
G|-------------------------------------|
D|-------------------------------------|
A|-------7---5------7---7---5----------|
D|---0-0---0---0-0----0---0-----5--5---|


E|---------------------|
B|---------------------|
G|---9---9---9---9-----|
D|-----7---7---7---7---|
A|---------------------|
D|---------------------|


Chorus.


Intro riff to outro.





Comments


Popular Hit The Lights tabs & chords
309 Bass Tabs
100 Times Chords
Speakers Blown Chords
Bodybag Tabs
Bodybag 1 Tabs
Breathe In Tabs
These Backs Are Made For Stabbing 2 Tabs
Until We Get Caught 1 Tabs
Back Breaker Ukulele
Save Your Breath Ukulele


Song lyrics



↑ Back to top | Tablatures and chords are parodies/interpretations of the original songs. You may use it for private study, scholarship, research or language learning purposes only
© 2014 AZChords.com Contact us | Privacy policy | DMCA | Add/correct tabs | Request tabs | Top 50 tabs