>
 >
Back Breaker 1

Back Breaker 1 Guitar Tabs

Hit The Lights - Back Breaker 1 chords, tabs, tablatures, lyrics

Guitar lessons | Add/correct | Request | Top 50 tabs Artists:  A B C D E F G H I J K L M N O P Q R S T U V W X Y Z 0-9

Back Breaker 1 Guitar Tabs – Hit The Lights

CD, Sheet music, Poster

Do you like Back Breaker 1? Share with your friends now
ChordsTabsTabs v2Tabs v3Ukulele
-------------------------------------------------------------------------------
                             Back Breaker - Hit The Lights
-------------------------------------------------------------------------------

Im not too sure about the order that the guitars are numbered in for this song,
so im gonna use lead guitar and rhythm guitar instead
This is also my first tab, so cut me some slack cuz im sure theres
a few mistakes. The extra open notes on the intro and prechorus are to make the riff deeper.
The only required ones are the open notes that come in pairs. I decided to try and make a tab
for this song cuz i couldnt find one that helped me alot.
If there are any questions or problems, leave a comment
and i will try my best to answer. But I digress... enjoy

Tuning: Drop D flat
--> means go to next line
 / means slide up
 \ means slide down
 h means hammer-on
 p means pull-off
 ~ means vibrato
 + means harmonic
 x means Mute note

INTRO: LEAD GUITAR  00:02- 00:27
e|----------------------------------------------------------->
B|----------------------------------------------------------->
G|----------------------------------------------------------->
D|---------------------------------------------------------7->
A|----5---7---5---7---7/9\7-5------5---7---5---7---7/9\7-5--->
E|-00---0---0---0---0---------7--00---0---0---0---0---------->


e|----------------------------------------------------------->
B|----------------------------------------------------------->
G|----------------------------------------------------------->
D|--------------------------------------------55-77---------->
A|----5---7---5---7---7/9\7-5-------5---7---5-55-77---------->
E|-00---0---0---0---0---------7--00---0---0---55-77---------->
     Play above section 2 full times and on the third time around play this:

e|----------------------------------------------------------->
B|----------------------------------------------------------->
G|----------------------------------------------------------->
D|---------------------------------------------------------7->
A|-----5---7---5---7---7/9\7-------5---7---5---7---7/9\7-5--->
E|--00---0---0---0---0-------7--00---0---0---0---0----------->


e|----------------------------------->
B|----------------------------------->
G|----------------------------------->
D|----------------------------------->
A|-----5---7---5---7---7/9\7-5---55~->
E|--00---0---0---0---0---------7-55~->


INTRO: RHYTHM GUITAR (guitar one plays intro one full time and then guitar 2 kicks in) 00:11-00:27

e|----------------------------------------------------------------->
B|----------------------------------------------------------------->
G|----------------------------------------------------------------->
D|-00-00-0000---00-00-0000---7-9---55-55-5555---55-55-5555---7h9p7->
A|-00-00-0000---00-00-0000---7-9---55-55-5555---55-55-5555---7h9p7->
E|-00-00-0000---00-00-0000---7-9---55-55-5555---55-55-5555---7h9p7->

e|-------------------------------------------------->
B|-------------------------------------------------->
G|-------------------------------------------------->
D|-00-00-0000---00-00-0000---7-9---55-55-5555---77~->
A|-00-00-0000---00-00-0000---7-9---55-55-5555---77~->
E|-00-00-0000---00-00-0000---7-9---55-55-5555---77~->

Lead In From Intro To verse 1 00:27-00:29 (you can either play this part or the last two 
of the above section.
Both fit with the song)
e|-0-0-0-2-3-2-0------>
B|-3-3-3-3-3-3---3---->
G|-2-2-2-2-2-2-------->
D|-0-0-0-0-0-0-------->
A|-------------------->
E|-------------------->


VERSE ONE- RHYTHM GUITAR 00:29-00:46
e|----------------------------------------------->
B|----------------------------------------------->
G|-7\------------------------------------------2->
D|-7\---00--0-0--00--xx-5h7--5\-555--5\--2-4-5-2->
A|-5\---00--0-0--00--xx-5h7--5\-555--5\--2-4-5-0->
E|------00--0-0--00--xx-5h7--5\-555--5\--2-4-5--->

A fill riff played around 00:34 and 00:43 right after the section of three 5's and ends 
then following 5 chord.
(Im not sure which guitar plays this part) We'll call it the LEAD GUITAR!
So in other words play this part as a lead in to the verse one for the lead
guitar.
e|--------------------------------------------------->
B|-------------------------------------8p7----------->
G|-----------------------------------------h9-7------>
D|----------------------------------------------7\5-->
A|--------------------------------------------------->
E|--------------------------------------------------->

VERSE ONE: LEAD GUITAR   00:37-00:46
This part comes in after the rhythm guitar plays the above part one full time. This part 
the same as the intro,
but with a slightly different ending that leads the song into the prechorus.  The 
is the last four notes,
which are the same as the last four notes of the rhythm section for Verse One.
|------------------------------------------------------------->
B|------------------------------------------------------------>
G|------------------------------------------------------------>
D|----------------------------------------------------------7->
A|----5---7---5---7---7/9\7-5-------5---7---5---7---7/9\7-5--->
E|-00---0---0---0---0---------7--00---0---0---0---0----------->

e|------------------------------------------------------>
B|------------------------------------------------------>
G|----------------------------------------------------2->
D|----------------------------------------------2-4-5-2->
A|----5---7---5---7---7/9\7-5-------5---7---5---2-4-5-0->
E|-00---0---0---0---0---------7--00---0---0---0-2-4-5--->


PRECHORUS: RHYTHM GUITAR  00:46-00:54
just as a side note, the "5/\" doesnt have to be played.
It is just what I am hearing as a transition to the
remainder of the prechorus.  "/\" means slide up, then down
e|------------------------------->
B|------------------------------->
G|-44-44--22-22------------------>
D|-44-44--22-22--55--5/\--2-4-5~->
A|-22-22--00-00--55--5/\--2-4-5~->
E|---------------55--5/\--2-4-5~->

PRECHORUS: LEAD GUITAR   00:46-00:54
This is as close as I could get to figuring this part out
because its very difficult to hear it in the background,
so work with me here. The rhythm of this part is close
to the rhythm of the vocals
e|-----0------3/55-3-2-0h2-0------>
B|---3---3----2/33-3-3-3-3-3-3---->
G|-2-2-----2--0-00-0-0-0-0-0-2---->
D|-0----------0-00-0-0-0-0-0-0---->
A|-------------------------------->
E|-------------------------------->

e|-----0---------0-2-0-->
B|---2---3-----3-3-3-3-->
G|-2-3-----2---2-0-0-0-->
D|-0---------0-0-0-0-0-->
A|-------------0-0-0-0-->
E|---------------------->


CHORUS: BOTH GUITARS 00:55- 1:10
As a Side note "x14" means 14 times. So in other words play the D flat chord
14 times etc.

e|---------------------------->
B|---------------------------->
G|---------------------------->
D|-0-x14--7-9--5-x14--7/9-7--->
A|-0-x14--7-9--5-x14--7/9-7--->
E|-0-x14--7-9--5-x14--7/9-7--->

e|---------------------------------------------------->
B|----------------and rebuild it till my back breaks-->
G|---------------------------------------------------->
D|-0-x14--7-9--5-x9----------------------------------->
A|-0-x14--7-9--5-x9----------------------------------->
E|-0-x14--7-9--5-x9----------------------------------->


POST CHORUS: LEAD GUITAR  1:12-1:29

e|----------------------------------------------------------->
B|----------------------------------------------------------->
G|----------------------------------------------------------->
D|--------------------------------------------------------7-->
A|----5---7---5---7---7/9\7-5-------5---7---5---7---7/9\7---->
E|-00---0---0---0---0---------7--00---0---0---0---0---------->


e|------------------------------------------------------->
B|--------------------------------------------8888------->
G|------------------------------------------------------->
D|---------------------------------------------------9-7->
A|----5---7---5---7---7/9\7-5-------5---7---5--------9-7->
E|-00---0---0---0---0---------7--00---0---0----------9-7->

e|----------------------------------------------------------->
B|----------------------------------------------------------->
G|----------------------------------------------------------->
D|--------------------------------------------------------7-->
A|----5---7---5---7---7/9\7-5-------5---7---5---7---7/9\7---->
E|-00---0---0---0---0---------7--00---0---0---0---0---------->

e|------------------------------------------------------->
B|------------------------------------------------------->
G|------------------------------9p7-9p7-9p7-9p7---------->
D|------------------------------7~----------------------->
A|----5---7---5---7---7/9\7-5---------------------------->
E|-00---0---0---0---0---------7-------------------------->

POST CHORUS: RHYTHM GUITAR  1:12-1:29
As a side note, 5/\ means slide up then down. And for best pick scrape,
scrape on the low three strings
e|--------------------------------------------------------------------->
B|--------------------------------------------------------------------->
G|--------------------------------------------------------------------->
D|-5/\-00-00-0000---00-00-0000---7-9---55-55-5555---55-55-5-xxxx--9-7-->
A|-----00-00-0000---00-00-0000---7-9---55-55-5555---55-55-5-xxxx--9-7-->
E|-----00-00-0000---00-00-0000---7-9---55-55-5555---55-55-5-xxxx--9-7-->


e|----------------------------------------------------------------->
B|----------------------------------------------------------------->
G|----------------------------------------------------------------->
D|-00-00-0000---00-00-0000---7-9---55-55-5555---5~--PICK SCRAPE---->
A|-00-00-0000---00-00-0000---7-9---55-55-5555---5~--PICK SCRAPE---->
E|-00-00-0000---00-00-0000---7-9---55-55-5555---5~--PICK SCRAPE---->

VERSE TWO: RHYTHM GUITAR 1:30-1:47

e|----------------------------------------->
B|----------------------------------------->
G|-7\----------------2------------------2-->
D|-7\-00-0-0-00--2h4-2--5\-55-5\--2-4-5-2-->
A|-5\-00-0-0-00--2h4-0--5\-55-5\--2-4-5-0-->
E|----00-0-0-00--2h4----5\-55-5\--2-4-5---->

 the rhythm is simple.
It's just straight eighth notes.. or sixteenth notes..
I suck at subdividing. And as a side note, "x32" means 32 times
e|------------------------------>
B|------------------------------>
G|---------------------2-------->
D|-0-x32--5-x28--2-4-5-2-------->
A|-0-x32--5-x28--2-4-5-0-------->
E|-0-x32--5------2-4-5---------->


VERSE TWO: LEAD GUITAR  1:30-1:47
As a side note, "x32" means 32 times
e|------------------>
B|------------------>
G|-7-x32---6/7-x32-->
D|-x-x32---x/x-x32-->
A|-5-x32---4/5-x32-->
E|------------------>

I'm not sure if the lead plays this part also, but i decided to,
so that the lead wouldnt sit there and do nothing for this stretch
of playing
e|-------------------------->
B|-------------------------->
G|---------------------2---->
D|-0-x32--5-x28--2-4-5-2---->
A|-0-x32--5-x28--2-4-5-0---->
E|-0-x32--5------2-4-5------>

This riff is played around 1:35 in verse two.
e|--------------------------------------------------->
B|-------------------------------------8p7----------->
G|-----------------------------------------h9-7------>
D|----------------------------------------------7\5-->
A|--------------------------------------------------->
E|--------------------------------------------------->

PRECHORUS 2: RHYTHM GUITAR 1:47-1:55

e|---------------------------------------------------->
B|---------------------------------------------------->
G|-44~-44~--22~-22~--55------------------------------->
D|-44~-44~--22~-22~--55--5/\--2-4-5--555-5555--------->
A|-22~-22~--00~-00~--55--5/\--2-4-5--555-5555--------->
E|-------------------55--5/\--2-4-5--555-5555--------->


PRECHORUS 2: LEAD GUITAR 1:47-1:55

e|-----0------3/55-3-2-0h2-0------>
B|---3---3----2/33-3-3-3h3-3-3---->
G|-2-2-----2--0-00-0-0-0-0-0-2---->
D|-0----------0-00-0-0-0-0-0-0---->
A|-------------------------------->
E|-------------------------------->

e|-----0------------------------->
B|---2---3----------------------->
G|-2-3-----2--------------------->
D|-0---------0-2-4-5-555-5555---->
A|-------------2-4-5-555-5555---->
E|-------------2-4-5-555-5555---->


CHORUS 2: BOTH GUITARS  1:56-2:13

e|---------------------------->
B|---------------------------->
G|---------------------------->
D|-0-x14--7-9--5-x14--7/9-7--->
A|-0-x14--7-9--5-x14--7/9-7--->
E|-0-x14--7-9--5-x14--7/9-7--->

e|-------------------------------------------->
B|-------------------------------------------->
G|-----------------------7~-------7~---------->
D|-0-x14--7-9--5-x8--555-7~--5555-7~--55-9~--->
A|-0-x14--7-9--5-x8--555-5~--5555-5~--55-9~--->
E|-0-x14--7-9--5-x8--555-5~--5555-5~--55-9~--->

BRIDGE
Im not too sure how this part of the song is divided, so
I'm just gonna call it all the bridge, but still divide based on
which guitar plays each part.

RHYTHM GUITAR    2:13-2:31
The Lead guitar rests during this section from 2:13-2:31
e|-------------------------------------------->
B|-------------------------------------------->
G|-------------------------------------------->
D|-~9~--5~--7-77-7-7-xx-------7-77-7-7-xx----->
A|-~9~--5~--7-77-7-7-xx-7~----7-77-7-7-xx-4~-->
E|-~9~--5~--7-77-7-7-xx-------7-77-7-7-xx----->

e|-------------------------------------------------->
B|-------------------------------------------------->
G|-----------------------------7~-------7~---9~----->
D|-9~--5~--7-77-7-7-xx-----555-7~--5555-7~--x9~-0~-->
A|-9~--5~--7-77-7-7-xx-7~--555-5~--5555-5~--x7~-0~-->
E|-9~--5~--7-77-7-7-xx-----555-5~--5555-5~--x7~-0~-->


RHYTHM GUITAR- at around 2:36, the rhythm guitar plays one more chord
e|----->
B|----->
G|----->
D|-5~-->
A|-5~-->
E|-5~-->

LEAD GUITAR  2:32-2:40
Play this part four times, and after the fourth time,
prechorus 3 begins. This part was really difficult
to hear, so this is the best I could come up with.
The tempo is slower rather than quicker, and the
rhythm is close to that of the vocals
e|-----22-0-----0---->
B|-33-------3-------->
G|-22---------2------>
D|-00---------------->
A|-00---------------->
E|------------------->


PRECHORUS 3
Im not sure if this part is technically a prechorus,
or still part of the bridge section. I decided to call it the
3rd prechorus so that the bridge wasnt too long

LEAD GUITAR    2:40-2:47
This part is kinda difficult to tab out and to have
others understand, so i recommend taking what u can
the song and play along with it. and as a side note, the chord
below is 12 and 14 not 1 and 4 or 1 and 2.  As another
side note, this section has no rhythm guitar part.
e|----------------------------------------------->
B|----------------------------------------------->
G|----9-7----999-7----------9-7----999-7-141414-->
D|-77-x-x-xx-xxx-x-777---xx-x-x-xx-xxx-x-xxx----->
A|-77-7-5-xx-777-5-777---xx-7-5-xx-777-5-121212-->
E|-77-----xx-------777---xx-----xx--------------->

e|---------------------------------------->
B|---------------------------------------->
G|----9-7-----999-7------9p7-9p7-9p7-9p7-->
D|-xx-x-x-xxx-xxx-x-777--7~--------------->
A|-xx-7-5-xxx-777-5-777------------------->
E|-xx-----xxx-------777------------------->


CHORUS 3
BOTH GUITARS 2:48-3:05
e|---------------------------->
B|---------------------------->
G|---------------------------->
D|-0-x14--7-9--5-x14--7/9-7--->
A|-0-x14--7-9--5-x14--7/9-7--->
E|-0-x14--7-9--5-x14--7/9-7--->

e|------------------------------------------------------>
B|------------------------------------------------------>
G|------------------------------------------------------>
D|-0-x14--7-9--5-x16------------------------------------>
A|-0-x14--7-9--5-x16------------------------------------>
E|-0-x14--7-9--5-x16------------------------------------>


POST CHORUS
Im not sure if this part is actually the post chorus, or
part of the outro, but i decided to divide the two up.
The timing of this rhythm is little wierd.  I again
recommend listening to this part of the song and
playing along with it.

BOTH GUITARS  3:06-3:14
e|---------------------------------------------------->
B|---------------------------------------------------->
G|---------------------------------------------------->
D|-0~-0-0--0-0-0-0-00--7-9----5~-5-5--5-5-5-5-55-5/\-->
A|-0~-0-0--0-0-0-0-00--7-9----5~-5-5--5-5-5-5-55-5/\-->
E|-0~-0-0--0-0-0-0-00--7-9----5~-5-5--5-5-5-5-55-5/\-->


OUTRO: LEAD GUITAR  3:14-3:25

e|------------------------------------------------------>
B|------------------------------------------------------>
G|------------------------------------------------------>
D|-------------------------------------------------7-9-->
A|----5---7---5---7---7/9\7-5-------5---7---5---5\-7-9-->
E|-00---0---0---0---0---------7--00---0---0---0-0\-7-9-->


e|------------------------------------------------->
B|------------------------------------------------->
G|-------------------------------7777-777777-11-9-->
D|-------------------------------xxxx-xxxxxx-x--x-->
A|----5---7---5---7---7/9\7-5----5555-555555-9--7-->
E|-00---0---0---0---0---------7-------------------->


OUTRO: RHYTHM GUITAR  3:14-3:25

|------------------------------------------------------------------>
B|----------------------------------------------------------------->
G|----------------------------------------------------------------->
D|-00-00-0000---00-00-0000---7-9---55-55-5555---5555-55555-9-7----->
A|-00-00-0000---00-00-0000---7-9---55-55-5555---5555-55555-9-7----->
E|-00-00-0000---00-00-0000---7-9---55-55-5555---5555-55555-9-7----->





Comments


Popular Hit The Lights tabs & chords
Speakers Blown 2 Bass Tabs
Make A Run For It Chords
Save Your Breath Chords
Speakers Blown Chords
Call Outyou Are The Dishes Tabs
Her Eyes Say Yes Tabs
Hidden Track Tabs
100 Times 2 Ukulele
Back Breaker Ukulele
Speakers Blown Ukulele


Song lyrics



↑ Back to top | Tablatures and chords are parodies/interpretations of the original songs. You may use it for private study, scholarship, research or language learning purposes only
© 2014 AZChords.com Contact us | Privacy policy | DMCA | Add/correct tabs | Request tabs | Top 50 tabs