» » »

Hit The Lights, Back Breaker Tabs (ver.3)

Artists:  A B C D E F G H I J K L M N O P Q R S T U V W X Y Z # 

Back Breaker Tabs (ver.3)

Hit The Lights Tabs
 Rating:
4/5 (6 votes)
Back Breaker lessons Tabs too difficult? Try these video lessons and learn fast
1
                This song is off the album 'skip school, start fights'
This song is played in drop d flat.

eb
Bb
Gb
Db
Ab
Db

p     = palm mute
\     = slide up neck
-> <- = continue to next line
b     = bend
~     = let ring


Unfortunately i havent got all parts from lead and rhythm, but its close enough for you 
be able to play the whole song.
So although some parts you may be able to improvise or have too work on, the basis is 
Have fun.


Intro: (lead)
|--------------------------------------->
|--------------------------------------->
|--------------------------------------->
|------------------------------------7b->
|---5-7-5-7-9-7-5-0----5-7-5-7-9-7-5---->
|-0------------------0------------------>

<------------------------------------|------------------->
<------------------------------------|------------------->
<------------------------------------|------------------->
<------------------------------55-77-|------------------->
<---5-7-5-7-9-7-5-0----5-7-5-7-55-77-|---5-7-5-7-9-7-5-0->
<-0------------------0---------55-77-|-0----------------->

<--------------------------------------------------------|-->
<--------------------------------------------------------|-->
<--------------------------------------------------------|-->
<-----------------7b----------------------------------7--|-->
<---5-7-5-7-9-7-5-------5-7-5-7-9-7-5-0----5-7-5-7-057-7-|-->
<-0-------------------0------------------0---------------|-->

<-------------------------------------------------------------|
<-------------------------------------------------------------|
<-------------------------------------------------------------|
<------------------------------------7b--------------------00-|
<---5-7-5-7-9-7-5-0----5-7-5-7-9-7-5-------5-7-5-7-9-7-5-0-00-|
<-0------------------0-------------------0-----------------00-|

Intro: Rhythm (comes in at end of first lead intro section)
|-------|-------------------------------------------|
|-------|-------------------------------------------|
|-------|-------------------------------------------|
|-55-77-|-00-00-00---00-00-00---55-55-55---55-55-55-|
|-55-77-|-00-00-00---00-00-00---55-55-55---55-55-55-|
|-55-77-|-00-00-00---00-00-00---55-55-55---55-55-55-|x2
          pp pp pp   pp pp pp   pp pp pp   pp pp pp

Verse1: Rhythm (timing is odd)
|---------------------------------|
|---------------------------------|
|---------------------------------|
|-0-00---0-0-00-0-5-55---5-5-55-5-|
|-0-00---0-0-00-0-5-55---5-5-55-5-|
|-0-00---0-0-00-0-5-55---5-5-55-5-|x2

Verse1: Lead
not too sure if perfect, but sounds too be played around this, second bit is similar to 
intro riff.
|-----------------------------------|--------------------------|
|-----------------------------------|--------------------------|
|------------------------7----------|--------------------------|
|--------------------------7--------|----------------7---------|
|----------------------------7-5-7--|--5-7-5-7-9-7-5---5-7-5-7-|
|-----------------------------------|--------------------------|

Pre-Chorus: Both (cant figure out lead)
|----------------------------|
|----------------------------|
|----------------------------|
|-7-77--5-55--0-00--0-777-55-|
|-7-77--5-55--0-00--0-777-55-|
|-7-77--5-55--0-00--0-777-55-|

Chorus: Both
|-------------------------------|----|------------|
|-------------------------------|----|------------|
|-------------------------------|----|------------|
|-0~-00~-0~-00~---5~-55~-5~-55~-|-or-|-0-----5----|
|-0~-00~-0~-00~---5~-55~-5~-55~-|----|-0-----5----|
|-0~-00~-0~-00~---5~-55~-5~-55~-|----|-0x16--5x16-|x2

Post-Chorus: Lead
|--------------------------------------------------------------------->
|--------------------------------------------------------------------->
|--------------------------------------------------------------------->
|-\------------------------------------7b----------------------------->
|-\---5-7-5-7-9-7-5-0----5-7-5-7-9-7-5-------5-7-5-7-9-7-5-0----5-7-5->
|-\-0------------------0-------------------0------------------0------->

<------------------------------------------------------------------|
<------------------------------------------------------------------|
<------------------------------------------------------------------|
<-57-------------------------------------7b---------------------0~-|
<-57----5-7-5-7-9-7-5-0----5-7-5-7-9-7-5-------5-7-5-7-9-7-5-0--0~-|
<-57--0------------------0-------------------0------------------0~-|

Post-Chorus: Rhythm
|------------------------------------------>
|------------------------------------------>
|------------------------------------------>
|-\-00-00-00---00-00-00---55-55-55---55-55->
|-\-00-00-00---00-00-00---55-55-55---55-55->
|-\-00-00-00---00-00-00---55-55-55---55-55->
    pp pp pp   pp pp pp   pp pp pp   pp pp

<-----------------------------------------|
<-----------------------------------------|
<-----------------------------------------|
<-75--00-00-00---00-00-00---55-55-55---0~-|
<-75--00-00-00---00-00-00---55-55-55---0~-|
<-75--00-00-00---00-00-00---55-55-55---0~-|
      pp pp pp   pp pp pp   pp pp pp

Verse2pt1: Lead
|----------------------------|
|----------------------------|
|-5-------7-----------5------|
|-x---------7---------x------|
|-7lots-------7-5-7---7again-|
|----------------------------|

Verse2pt1: Rhythm
|---------------------------------|
|---------------------------------|
|---------------------------------|
|-0-00---0-0-00-0-5-55---5-5-55-5-|
|-0-00---0-0-00-0-5-55---5-5-55-5-|
|-0-00---0-0-00-0-5-55---5-5-55-5-|

Verse2pt2: Both
|-------------|
|-------------|
|-------------|
|-0------5----|
|-0------5----|
|-0x16---5x16-|
  p      p

Pre-Chorus: Both
|----------------------------|
|----------------------------|
|----------------------------|
|-7-77--5-55--0-00--0-777-55-|
|-7-77--5-55--0-00--0-777-55-|
|-7-77--5-55--0-00--0-777-55-|

Chorus: Both
|-------------------------------|----|------------|
|-------------------------------|----|------------|
|-------------------------------|----|------------|
|-0~-00~-0~-00~---5~-55~-5~-55~-|-or-|-0-----5----|
|-0~-00~-0~-00~---5~-55~-5~-55~-|----|-0-----5----|
|-0~-00~-0~-00~---5~-55~-5~-55~-|----|-0x16--5x16-|x2

Interlude: Both (cant figure out lead)
|-------------------------------------------------|
|-------------------------------------------------|
|-------------------------------------------------|
|-9~--5~--0-00-000-0---9~--5~--0-00-000-0~--5~--0-|
|-9~--5~--0-00-000-0---9~--5~--0-00-000-0~--5~--0-|
|-9~--5~--0-00-000-0---9~--5~--0-00-000-0~--5~--0-|

Break: Lead
|----------------------------------------------------------|
|----------------------------------------------------------|
|----------------------------------------------------------|
|------------------------------------7b--------------------|
|---5-7-5-7-9-7-5-0----5-7-5-7-9-7-5-------5-7-5-7-9-7-5-0-|
|-0------------------0-------------------0-----------------|

Chorus: Both (third time, the rhythm changes)
|-------------------------------|----|------------|
|-------------------------------|----|------------|
|-------------------------------|----|------------|
|-0~-00~-0~-00~---5~-55~-5~-55~-|-or-|-0-----5----|
|-0~-00~-0~-00~---5~-55~-5~-55~-|----|-0-----5----|
|-0~-00~-0~-00~---5~-55~-5~-55~-|----|-0x16--5x16-|x3

Outro: Lead
|---------------------------------------------------------------------|
|---------------------------------------------------------------------|
|---------------------------------------------------------------------|
|------------------------------------7b----------------------0-0-0-57-|
|---5-7-5-7-9-7-5-0----5-7-5-7-9-7-5-------5-7-5-7-9-7-5-0---0-0-0-57-|
|-0------------------0-------------------0-------------------0-0-0-57-|

Outro: Rhythm
|-------------------------------------------|
|-------------------------------------------|
|-------------------------------------------|
|-00-00-00---00-00-00---55-55-55---55-00-75-|
|-00-00-00---00-00-00---55-55-55---55-00-75-|
|-00-00-00---00-00-00---55-55-55---55-00-75-|
  pp pp pp   pp pp pp   pp pp pp
            
Submit corrections

comments powered by Disqus
↑ Back to top | Hit The Lights Tabs for Back Breaker. Lyrics for acoustic guitar and electric guitar. 1 Tablatures and chords are parodies/interpretations of the original songs. You may use it for private study, scholarship, research or language learning purposes only