» » »

H.I.M, Soul On Fire Tabs (ver.3)

Artists:  A B C D E F G H I J K L M N O P Q R S T U V W X Y Z # 

Soul On Fire Tabs (ver.3)

H.I.M Tabs
Rating:
0/5 (0 votes)
Soul On Fire lessons Tabs too difficult? Try these video lessons and learn fast
                h = hammer on
b = bend
x = fret mute
. = palm mute
intro / after chorus / outro

-------------------------------------
-------------------------------------
-------------------------------------
-------------------------------------
009-9-08-8-07-7h9----009-9-08-8-07h9-
------------------------------------- x5
..    .    .         ..    .    .

pre-chorus

---------------------8b----------
-----------------4h5-------------
---------------------------------
-xx-2-2---xx-3-3-----------------
-xx-2-2---xx-3-3-----------------
-xx-0-0---xx-1-1-----------------

chorus

---------------------------------
---------------------------------
---------------------------------
---------------------------------
-15-15--14-14-13-13-15-------------
--------------------------------- x10 i think

as well as it bein ma first tab, this is the only tab for this song that i know of so don't start b**chin bout the lack of solo
rate this plz
            

comments powered by Disqus
↑ Back to top | H.I.M Tabs for Soul On Fire. Lyrics for acoustic guitar and electric guitar. Tablatures and chords are parodies/interpretations of the original songs. You may use it for private study, scholarship, research or language learning purposes only