» » »

H.I.M, Soul On Fire Tabs (ver.2)

Artists:  A B C D E F G H I J K L M N O P Q R S T U V W X Y Z # 

Soul On Fire Tabs (ver.2)

H.I.M Tabs
 Rating:
4/5 (4 votes)
Soul On Fire lessons Tabs too difficult? Try these video lessons and learn fast
                GROUP: H.I.M.
TUNING: Standard

me and my guitar teacher worked this song out

h=hammer on
()=optional note

Main Riff
e|---------------|
B|---------------|
G|---------------|
D|-5-5-4-4-0-0-2-|
A|---------------|
E|---------------|

Use these chords
   Em C  D  Am
e|-0--0--2--0--|
B|-0--1--3--1--|
G|-0--0--2--2--|
D|-2--2--0--2--|
A|-2--3-----0--|
E|-0--0--------|

(slow part where the bass plays the main riff, just pick around on these) ( | |=one measure… 4/4)
| Em | Em | C | C | Em | Em | C | C | D | D | C | C | D | D | C |

Right before the Chorus
e|----------------------(10)-|
B|-----------------------10--|
G|-5-5-5-5-x-x-7-7-----------|
D|-5-5-5-5-x-x-7-7---4h5-----|
A|-3-3-3-3-x-x-5-5-----------|
E|---------------------------|

Chorus
| Em | Em | C | D | Em | Em | Am | C D |

thats about it!

enjoy!
            
Submit corrections

comments powered by Disqus
↑ Back to top | H.I.M Tabs for Soul On Fire. Lyrics for acoustic guitar and electric guitar. Tablatures and chords are parodies/interpretations of the original songs. You may use it for private study, scholarship, research or language learning purposes only