» » »

Love's Requiem Bass tabs (ver.1)

Artists:  A B C D E F G H I J K L M N O P Q R S T U V W X Y Z # 

Love's Requiem Bass tabs (ver.1)

H.I.M
Rating:
0/5 (0 votes)

Hard to play? Try these video lessons and learn fast.
                Alright, not much so far, but more will come in time

Main riff

G||----------------------|----------------------|
D||----------------------|----------------------|
A||-------7h9----7-------|--5----------5--------|
E||--0-------------------|-------5h7------------|



|----------------------|----------------------|
|----------------------|----------------------|
|-------7h9----7-------|--5-----------5h7-----|
|--0-------------------|-------5h7------------|

Tab courtesy of Raf Hickey. Leave corrections and rate this, please.
            
Hard to play? Try these video lessons and learn fast. | Correct




comments powered by Disqus
↑ Back to top | Tablatures and chords are parodies/interpretations of the original songs. You may use it for private study, scholarship, research or language learning purposes only