>
 >
Loves Requiem

Loves Requiem Guitar Tabs

H.I.M - Loves Requiem chords, tabs, tablatures, lyrics

Guitar lessons | Add/correct | Request | Top 50 tabs Artists:  A B C D E F G H I J K L M N O P Q R S T U V W X Y Z 0-9

Loves Requiem Guitar Tabs – H.I.M

CD, Sheet music, Poster

Do you like Loves Requiem? Share with your friends now
Bass TabsChordsTabsUkulele
~Love's Requiem is my favorite song and I noticed that no one had made
a tab for the entire song yet. So I taught it to myself and wish to share
it with you. Enjoy my darlings. <3 HIMfan817

Intro/Verse:
(it's made for the bass but still sounds cool as a guitar riff)

e|------------------------------------------------------------------|
b|------------------------------------------------------------------|
g|------------------------------------------------------------------|
D|--------2--4--2--0---------0---------2--4--2--0-------0-2---------|
A|---------------------0--2------------------------0-2--------------|
E|---0----------------------------0---------------------------------|



Interlude:
The next is for a keyboard but still sounds good for guitar:


e|------------------------------------------------------------------|
b|------------------------------------------------------------------|
g|------------------------------------------------------------------|
D|------------5~----------7~-----------9~-------------4~----2~------|
A|------------------------------------------------------------------|
E|------------------------------------------------------------------|
 {From the chains of our war, and the pain we once called love.}

 *At the end of the first half, play -2--2/3\2- on the low E string.
The second half, when Ville sings 'again', play -3~- on the D string*


Chorus:


e|-------------------------------------------------------------------|
b|-------------------------------------------------------------------|
g|---------2--2-2--5-5-5-5-----------------------2--2-2--5-5-5-5-----|
D|---------2--2-2--5-5-5-5----5--5-5--2-2-2-2----2--2-2--5-5-5-5-----|
A|-2/3\2---0--0-0--3-3-3-3----5--5-5--2-2-2-2----0--0-0--3-3-3-3-----|
E|----------------------------3--3-3--0-0-0-0------------------------|
  
  
e|-------------------------------------------------------------------|
b|-------------------------------------------------------------------|
g|--9--9---7--7---2--2-2--5-5-5-5---------------------2--2-2--5-5-5-5|
D|--9--9---7--7---2--2-2--5-5-5-5---5--5-5--2-2-2-2---2--2-2--5-5-5-5|
A|--7--7---5--5---0--0-0--3-3-3-3---5--5-5--2-2-2-2---0--0-0--3-3-3-3|
E|----------------------------------3--3-3--0-0-0-0------------------|
   *___________*

e|--------------------|
b|--------------------|
g|--------------------|
D|--5~----------------|
A|--5~----------------|
E|--3~----------------|


Bridge #1:
(I'm not 100% sure of this part, but it still sounds okay)
*NOTE: the chorus before the bridge will not end with the G-chord,
       instead it will end like the middle of the chorus with the E-
       and D-chords.{the part above that's starred + underlined}

e|------------------------------------------------------------------|
b|------------------------------------------------------------------|
g|-------------------------.---.---.--.---.---.---------------------|
D|2~--------------5---3----3---3---3--3---3---3---2~-------------5--|
A|2~--------------5---3----3---3---3--3---3---3---2~-------------5--|
E|0~--------------3---1----1---1---1--1---1---1---0~-------------3--|
  {The salvation we seek will be waiting us there, in the heart of->}

e|--------------------------------|
b|--------------------------------|
g|--------.----.--.---.---.-------|
D|----3---3----3--3---3---3-------|
A|----3---3----3--3---3---3-------|
E|----1---1----1--1---1---1-------|
 {<--darkness lonely and scared...}


Solo:

e|------------------------------------------------------------------|
b|------------------------------------------------------------------|
g|------------------------------------------------------------------|
D|------------------------------------------------------------------|
A|------5/7\5~--5/7\5-3-5--5-7-5-3-0--------5/7\5--4\2/4------------|
E|-5~-----------------------------------5~----------------3~--------|

e|------------------------------------------------------------------|
b|------------------------------------------------------------------|
g|------------------------------------------------------------------|
D|------------------------------------------------------------------|
A|------5/7\5~--5/7\5-3-5--5-7-5-3-0---------5/7\5--4\2/4-----------|
E|-5~----------------------------------1/5~----------------3~-------|


Bridge #2:
(Again, the chords may be different...)

e|------------------------------------------------------------------|
b|------.-.-.-.-.-.-.-.-.-.-.-.-.-----------------------------------|
g|------2-2-2-2-2-2-2-2-5-5-5-5-5-----------------------------------|
D|------2-2-2-2-2-2-2-2-5-5-5-5-5-----------------------------------|
A|------0-0-0-0-0-0-0-0-3-3-3-3-3-----------------------------------|
E|------------------------------------------------------------------|
 {I am lost,}     {so lost}

THE LAYOUT OF THE SONG IS AS FOLLOWS:

INTRO/VERSE---> 6 TIMES
INTERLUDE-----> 1 TIME (READ NOTES ABOVE)
INTRO/VERSE---> 2 TIMES
INTERLUDE-----> 1 TIME (READ NOTES ABOVE)
CHORUS--------> 1 TIME
INTRO/VERSE---> 4 TIMES
INTERLUDE-----> 1 TIME (READ NOTES ABOVE)
INTRO/VERSE---> 2 TIMES
INTERLUDE-----> 1 TIME (READ NOTES ABOVE)
CHORUS--------> 1 TIME (READ NOTES ABOVE
BRIDGE#1------> 1 TIME
SOLO----------> 1 TIME
BRIDGE#2------> 1 TIME
CHORUS--------> 4 TIMES (ALL LIKE ONE BEFORE BRIDGE #1 EXCEPT THE LAST) 
(SOLO IF YOU)-> 3 TIMES, AFTER THE CHORUS IS PLAYED ONCE
(HAVE 2 GUITARS)
INTRO/VERSE---> ABOUT 6 TIMES, IT FADES AS THE SONG ENDS


THE SYMBOLS USED IN THIS TAB ARE:
/ -----> slide up
\ -----> slide down
~ -----> vibrato (or just hold out note)
. -----> palm mute the chord its over





Comments


Popular H.I.M tabs & chords
The Funeral Of Hearts 3 Bass Tabs
Beautiful 1 Chords
Funeral Of Hearts 1 Chords
You Are The One Chords
You Are The One 1 Chords
Heaven Tonight Tabs
Pretending Tabs
Razorblade Kiss 1 Tabs
Stigmata Diaboli Tabs
You Are The One 2 Tabs


Song lyrics



↑ Back to top | Tablatures and chords are parodies/interpretations of the original songs. You may use it for private study, scholarship, research or language learning purposes only
© 2014 AZChords.com Contact us | Privacy policy | DMCA | Add/correct tabs | Request tabs | Top 50 tabs