» » »

H.I.M, Killing Loneliness Tabs (ver.1)

Artists:  A B C D E F G H I J K L M N O P Q R S T U V W X Y Z # 

Killing Loneliness Tabs (ver.1)

H.I.M Tabs
 Rating:
4/5 (4 votes)
Killing Loneliness lessons Tabs too difficult? Try these video lessons and learn fast
1
                
Standard Tuning

HIM : Killing Loneliness
Album : Dark Light
Guitarist : Linde

b: Bend
~: vibrato
p: Pull - Off
h: Hammer On
/:Slide down
\:Slide up
.. : Palm Muted notes

Intro :

e----------------------------------------------------------|
B----------------------------------------------------------|
G----------------------------------------------------------|
D-5-5-5-5--8-8-8-8-8-8-8--5-5-5/6-6-6-6-5/6-6-6-6-5/6------|
A-5-5-5-5--8-8-8-8-8-8-8--5-5-5/6-6-6-6-5/6-6-6-6-5/6------|
E-3-3-3-3--6-6-6-6-6-6-6--3-3-3/4-4-4-4-3/4-4-4-6-3/4-3~~--|

e----------------------------------------------------------|
B----------------------------------------------------------|
G----------------------------------------------------------|
D-5-5-5-5--8-8-8-8-8-8-8--5-5-5/6-6-6-6-5/6-6-6-6-5/6/8----|
A-5-5-5-5--8-8-8-8-8-8-8--5-5-5/6-6-6-6-5/6-6-6-6-5/6/8----|
E-3-3-3-3--6-6-6-6-6-6-6--3-3-3/4-4-4-4-3/4-4-4-6-3/4/6----|

e----------------------------------------------------------|
B----------------------------------------------------------|
G----------------------------------------------------------|
D-5-5-5-5--8-8-8-8-8-8-8--5-5-5/6-6-6-6-5/6-6-6-6-5/6------|
A-5-5-5-5--8-8-8-8-8-8-8--5-5-5/6-6-6-6-5/6-6-6-6-5/6------|
E-3-3-3-3--6-6-6-6-6-6-6--3-3-3/4-4-4-4-3/4-4-4-6-3/4-3~~--|

Verse:

e----------------------------------------------------------------|
B----------------------------------------------------------------|
G----------------------------------------------------------------|
D-5555555555555--------------------------------------------------|
A-3333333333333-555555555555-333333333333-6666666-5555-6-5-------|
E---------------333333333333-111111111111-4444444-3333------3~~--|
  ............  ........... ............ ....... .....
------------------------------------------------------------------|
B-----------------------------------------------------------------|
G-555555555555----------------------------------------------------|
D-5555555555555-555555555555-333333333333-------------------------|
A-3333333333333-555555555555-333333333333-6/8-6/8-6/8-6/8--3-3----|
E---------------333333333333-111111111111-4/6-4/6-4/6-4/6--1-1----|
  ...........  ............ ............

Chorus:

e----------------------------------------------------------------|
B----------------------------------------------------------------|
G----------------------------------------------------------------| 2X
D-5-5-5-5-5-5--8-8-8-8-8-8--6-6-6-6-6-6-6-6-6-6------------------|
A-3-3-3-3-3-3--8-8-8-8-8-8--6-6-6-6-6-6-6-6-6-6------------------|
E-3-3-3-3-3-3--6-6-6-6-6-6--4-4-4-4-4-4-4-4-4-4------------------|

e-------------------------------------------------------------------------|
B-------------------------------------------------------------------------|
G-------------------------------------------------------------------------|
D--8-8--88--6-66--------8-8--88--6-6/8------------------------------------|
A--6-6--66--6-66--5-5---6-6--6-6-6--6-6--66--6-6/8-3333333-66666/14\3-----|
E--6-6--66--4-44--3-3---4-4--4-4-4--6-6--66--4-4/6-3333333-44444/14\3-----|
                  . .   . .                        .......  ...

Then the Intro :

e----------------------------------------------------------|
B----------------------------------------------------------|
G----------------------------------------------------------|
D-5-5-5-5--8-8-8-8-8-8-8--5-5-5/6-6-6-6-5/6-6-6-6-5/6/8----|
A-5-5-5-5--8-8-8-8-8-8-8--5-5-5/6-6-6-6-5/6-6-6-6-5/6/8----|
E-3-3-3-3--6-6-6-6-6-6-6--3-3-3/4-4-4-4-3/4-4-4-6-3/4/6----|

e----------------------------------------------------------|
B----------------------------------------------------------|
G----------------------------------------------------------|
D-5-5-5-5--8-8-8-8-8-8-8--5-5-5/6-6-6-6-5/6-6-6-6-5/6------|
A-5-5-5-5--8-8-8-8-8-8-8--5-5-5/6-6-6-6-5/6-6-6-6-5/6------|
E-3-3-3-3--6-6-6-6-6-6-6--3-3-3/4-4-4-4-3/4-4-4-6-3/4-3~~--|


Verse:

e----------------------------------------------------------------|
B----------------------------------------------------------------|
G----------------------------------------------------------------|
D-5555555555555--------------------------------------------------|
A-3333333333333-555555555555-333333333333-6666666-5555-6-5-------|
E---------------333333333333-111111111111-4444444-3333------3~~--|
  ............  ........... ............ ....... .....
------------------------------------------------------------------|
B-----------------------------------------------------------------|
G-555555555555----------------------------------------------------|
D-5555555555555-555555555555-333333333333-------------------------|
A-3333333333333-555555555555-333333333333-6/8-6/8-6/8-6/8--3-3----|
E---------------333333333333-111111111111-4/6-4/6-4/6-4/6--1-1----|
  ...........  ............ ............

Chorus:

e----------------------------------------------------------------|
B----------------------------------------------------------------|
G----------------------------------------------------------------| 2X
D-5-5-5-5-5-5--8-8-8-8-8-8--6-6-6-6-6-6-6-6-6-6------------------|
A-3-3-3-3-3-3--8-8-8-8-8-8--6-6-6-6-6-6-6-6-6-6------------------|
E-3-3-3-3-3-3--6-6-6-6-6-6--4-4-4-4-4-4-4-4-4-4------------------|

e--------------------------------------------------------------------------|
B--------------------------------------------------------------------------|
G--------------------------------------------------------------------------|
D--8-8--88--6-66---------------------8-8--88--6-6/8------------------------|
A--6-6--66--6-66--5-5----6-6--6-6-6--6-6--66--6-6/8-3333333-66666----------|
E--6-6--66--4-44--3-3----4-4--4-4-4--6-6--66--4-4/6-3333333-44444----------|
                  . .    . .                        .......  ...

AT Next :

e---------------------------------------------------------------|
B---------8-----8------8-----------------6----6-----6-----------|
G----5------5-----5------5---5-----5-------5----5-----5---5-----|
D-8----8------8-----8------8-----8---8-------8----8-----8-------|
A---------------------------------------------------------------|
E---------------------------------------------------------------|


Then:

e-----------------------------------------------------------------------------|
B-----------------------------------------------------------------------------|
G-----------------------------------------------------------------------------|
D-----1--------1-----------------------------1-------1---3~----1--------1---3-|
A-33--1-3--33--1-3--6/8-6/8-6/8-6/8--3-3--33-1-3-333-1-3-3~-33-1-3--333-1-3-3-|
E-33----3--33----3--4/6-4/6-4/6-4/6--1-1--33---3-333---3----33---3--333---3---|

e--------------------------------------------------------|
B--------------------------------------------------------|
G--------------------------------------------------------|
D--------------------------------------------------------|
A-6/8-6/8-6/8-6/8--3-3---6/8-6/8-6/8-6/8--3-3------------|
E-4/6-4/6-4/6-4/6--1-1---4/6-4/6-4/6-4/6--1-1------------|


Chorus :


e----------------------------------------------------------------|
B----------------------------------------------------------------|
G----------------------------------------------------------------| 2X
D-5-5-5-5-5-5--8-8-8-8-8-8--6-6-6-6-6-6-6-6-6-6------------------|
A-3-3-3-3-3-3--8-8-8-8-8-8--6-6-6-6-6-6-6-6-6-6------------------|
E-3-3-3-3-3-3--6-6-6-6-6-6--4-4-4-4-4-4-4-4-4-4------------------|

e-------------------------------------------------------------------------|
B-------------------------------------------------------------------------|
G-------------------------------------------------------------------------|
D--8-8--88--6-66--------8-8--88--6-6/8------------------------------------|
A--6-6--66--6-66--5-5---6-6--6-6-6--6-6--66--6-6/8-3333333-66666/14\3-----|
E--6-6--66--4-44--3-3---4-4--4-4-4--6-6--66--4-4/6-3333333-44444/14\3-----|
                  . .   . .                        .......  ...

Then The Intro Again :

e----------------------------------------------------------|
B----------------------------------------------------------|
G----------------------------------------------------------|
D-5-5-5-5--8-8-8-8-8-8-8--5-5-5/6-6-6-6-5/6-6-6-6-5/6/8----| 3X
A-5-5-5-5--8-8-8-8-8-8-8--5-5-5/6-6-6-6-5/6-6-6-6-5/6/8----|
E-3-3-3-3--6-6-6-6-6-6-6--3-3-3/4-4-4-4-3/4-4-4-6-3/4/6----|

e----------------------------------------------------------|
B----------------------------------------------------------|
G----------------------------------------------------------|
D-5-5-5-5--8-8-8-8-8-8-8--5-5-5/6-6-6-6-5/6-6-6-6-5/6------|
A-5-5-5-5--8-8-8-8-8-8-8--5-5-5/6-6-6-6-5/6-6-6-6-5/6------|
E-3-3-3-3--6-6-6-6-6-6-6--3-3-3/4-4-4-4-3/4-4-4-6-3/4-3~~--|

So I hope you enjoy it !!

HIM - 4 - Life

Comments are welcome !!
            
Submit corrections

comments powered by Disqus
↑ Back to top | H.I.M Tabs for Killing Loneliness. Lyrics for acoustic guitar and electric guitar. 1 Tablatures and chords are parodies/interpretations of the original songs. You may use it for private study, scholarship, research or language learning purposes only