>
 >
Killing Loneliness

Killing Loneliness Bass Tabs

H.I.M - Killing Loneliness chords, tabs, tablatures, lyrics

Guitar lessons | Add/correct | Request | Top 50 tabs Artists:  A B C D E F G H I J K L M N O P Q R S T U V W X Y Z 0-9

Killing Loneliness Bass Tabs – H.I.M

CD, Sheet music, Poster

Do you like Killing Loneliness? Share with your friends now
Bass TabsChordsChords v2Chords v3Chords v4TabsTabs v2Tabs v3Tabs v4Tabs v5Tabs v6Ukulele
#------------------------------------------------------------------------------##

                          KILLING LONELINESS (Bassline)
                              As recorded by H.I.M.
                        (From the 2005 Album DARK LIGHT)

Words by Ville Valo

Music by H.I.M.

Gtr I (B E A D) - 'Mige Amour'

 Intro
  Q=134
 4/4
  Gtr I
  Wx8
|--------||
|--------||
|--------||
|--------||


 Intro cont. / Pre-Verse
  $
  E E E E E E E E   E E E E E E E E   E E E H    E   E E E E E E E E
|-----------------|-----------------|--------------|------------------|
|-----------------|-----------------|--------------|------------------|
|-----------------|-6-6-6-6---3-3-3-|-4-4-4------3-|-4-4-4-3-4-6-6-6--|
|-1-1-1-1---4-4-4-|-----------------|--------------|------------------|


                                                        To Coda
  E E E E E E E E   E E E E E E E E   E E E H    E   E E E E E Q.
|-----------------|-----------------|--------------|-----------------||
|-----------------|-----------------|--------------|-----------------||
|-----------------|-6-6-6-6---3-3-3-|-4-4-4------3-|-4-4-4-3-4-3-----||
|-1-1-1-1---4-4-4-|-----------------|--------------|-----------------||


 Verse
  E E E E E E E E   E E E E E E E E   E E E E E E E E   E E E E E E E E
|-----------------|-----------------|-----------------|------------------|
|-3-3-3-3---3-3-3-|-3-3-3-3---3-3-3-|-----------------|------------------|
|-----------------|-----------------|-3-3-3-3---3-3-3-|-3-3-3-3---3-3-3--|
|-----------------|-----------------|-----------------|------------------|


  E E E E E E E E   E E E E E E E E   E E E E E E E E   E E E E E E E E
|-----------------|-----------------|-----------------|------------------|
|-----------------|-----------------|-----------------|-----------6-5----|
|-1-1-1-1---1-1-1-|-1-1-1-1---1-1-1-|-4-4-4-4---4-4-4-|-4-4-4-4-------3--|
|-----------------|-----------------|-----------------|------------------|


  +Q   E E E E E E   E E E E E E E E   E E E E E E E E   E E E E E E E E
|------------------|-----------------|-----------------|------------------|
|------3-3---3-3-3-|-3-3-3-3---3-3-3-|-----------------|------------------|
|-(3)--------------|-----------------|-3-3-3-3---3-3-3-|-3-3-3-3---3-3-3--|
|------------------|-----------------|-----------------|------------------|


  E E E E E E E E   E E E E E E E E   E Q  E Q  E E   +E  E Q  Q  Q
|-----------------|-----------------|---------------|------------------||
|-----------------|-----------------|---6----6----6-|-(6)---6----------||
|-1-1-1-1---1-1-1-|-1-1-1-1---1-1-1S|=4----4----4---|-----4----6--6\---||
|-----------------|-----------------|---------------|------------------||


   Chorus
    $$
    E E E E E E E E   E E E E E E E E   E E E E E E E E   E E E E E E E E
||------------------|-----------------|-----------------|------------------||
||o-----------------|-----------------|-----------------|-----------------o||
||o-----------------|-----------------|-4-4-4-4-4-4-4-4-|-4-4-4-4-4-4-4-4-o||
||--1-1-1-1-1-1-1-1-|-4-4-4-4-4-4-4-4-|-----------------|------------------||


 Bridge
  H..       E    E  E  E  E  H       E E H.        E E Q.   Q.
|-------------|--------------------|-------------|----------------|
|-------------|--------------------|-------------|----------------|
|-------------|--------------------|-------------|-4-4------4-----|
|-4---------4S|=11-11-11-11-11\----|-1-1---------|----------------|


                                                         D.S. al Coda
                                                         D.S. al Coda
  H..       E    E  E  E  E  H       E E E E E E E E   E E E E E E E E
|-------------|--------------------|-----------------|------------------||
|-------------|--------------------|-----------------|------------------||
|-------------|--------------------|-----------------|-4-4-4-4-4-4-4-4--||
|-4---------4S|=11-11-11-11-11\----|-1-1-1-1-1-1-1-1-|------------------||


 Verse
  &
  E E E E E E E E   E E E E E E E E   E E E E E E E E   E E E E E E E E
|-----------------|-----------------|-----------------|------------------|
|-3-3-3-3---3-3-3-|-3-3-3-3---3-3-3-|-----------------|------------------|
|-----------------|-----------------|-3-3-3-3---3-3-3-|-3-3-3-3---3-3-3--|
|-----------------|-----------------|-----------------|------------------|


  E E E E E E E E   E E E E E E E E   E E E E E E E E   E E E E E E E E
|-----------------|-----------------|-----------------|------------------|
|-----------------|-----------------|-----------------|-----------6-5----|
|-1-1-1-1---1-1-1-|-1-1-1-1---1-1-1-|-4-4-4-4---4-4-4-|-4-4-4-4-------3--|
|-----------------|-----------------|-----------------|------------------|


  Q  E E E E E E   E E E E E E E E   E E E E E E E E   E E E E E E E E
|----------------|-----------------|-----------------|------------------|
|----3-3---3-3-3-|-3-3-3-3---3-3-3-|-----------------|------------------|
|-3--------------|-----------------|-3-3-3-3---3-3-3-|-3-3-3-3---3-3-3--|
|----------------|-----------------|-----------------|------------------|


                                               D.S.S. al Dbl. Coda
  E E E E E E E E   E E E E E E E E   E Q  E Q  E E   +E  E Q  Q  Q
|-----------------|-----------------|---------------|------------------||
|-----------------|-----------------|---6----6----6-|-(6)---6----------||
|-1-1-1-1---1-1-1-|-1-1-1-1---1-1-1S|=4----4----4---|-----4----6--6\---||
|-----------------|-----------------|---------------|------------------||


 Interlude
  &&
  E E E E E E E E   E E E E E E E E   E E E E E E E E   E E E E E E E E
|-----------------|-----------------|-----------------|------------------|
|-----------------|-----------------|-----------------|------------------|
|-1-1-1-1-1-1-1-1-|-1-1-1-1-1-3-3-3-|-4-4-4-4-4-4-4-4-|-4-4-4-4-4-4-4-4--|
|-----------------|-----------------|-----------------|------------------|


  E E E E H      W          E E E E H      W
|--------------|----------|--------------|------|
|--------------|----------|--------------|------|
|--------------|----------|--------------|------|
|-1-1-4-1------|----------|-1-1-4-1------|------|


  E Q  E Q  E E   +E  E Q  Q  Q
|---------------|-----------------|
|---6----6----6-|-(6)---6---------|
|-4----4----4---|-----4----6--6\--|
|---------------|-----------------|


  E E E E Q  E E   +E  E E E S S E E E   E E E E Q  E E   +E  E E E S S E E E
|----------------|---------------------|----------------|----------------------|
|----------------|---------------------|----------------|----------------------|
|----------------|---------------------|----------------|----------------------|
|-1-1-4-1----1-1-|-(1)-1-4-1-4s6-4-3-4-|-1-1-4-1----1-1-|-(1)-1-4-1-4s6-4-3-4--|


  E Q  E Q  E E   +E  E Q  Q  Q     E Q  E Q  E E   +E  E Q  Q  Q
|---------------|-----------------|---------------|------------------||
|---6----6----6-|-(6)---6---------|---6----6----6-|-(6)---6----------||
|-4----4----4---|-----4----6--6\--|-4----4----4---|-----4----6--6\---||
|---------------|-----------------|---------------|------------------||


   Chorus
    E E E E E E E E   E E E E E E E E   E E E E E E E E   E E E E E E E E
||------------------|-----------------|-----------------|------------------||
||o-----------------|-----------------|-----------------|-----------------o||
||o-----------------|-----------------|-4-4-4-4-4-4-4-4-|-4-4-4-4-4-4-4-4-o||
||--1-1-1-1-1-1-1-1-|-4-4-4-4-4-4-4-4-|-----------------|------------------||


 Bridge
  H..       E    E  E  E  E  H       E E H.        E E Q.   Q.
|-------------|--------------------|-------------|----------------|
|-------------|--------------------|-------------|----------------|
|-------------|--------------------|-------------|-4-4------4-----|
|-4---------4S|=11-11-11-11-11\----|-1-1---------|----------------|


  H..       E    E  E  E  E  H       E E E E E E E E   E E E E E E E E
|-------------|--------------------|-----------------|------------------||
|-------------|--------------------|-----------------|------------------||
|-------------|--------------------|-----------------|-4-4-4-4-4-4-4-4--||
|-4---------4S|=11-11-11-11-11\----|-1-1-1-1-1-1-1-1-|------------------||


   Outro
    E E E E E E E E   E E E E E E E E   E E E H    E   E E E E E E E E
||------------------|-----------------|--------------|-----------------|
||o-----------------|-----------------|--------------|-----------------|
||o-----------------|-6-6-6-6---3-3-3-|-4-4-4------3-|-4-4-4-3-4-6-6-6-|
||--1-1-1-1---4-4-4-|-----------------|--------------|-----------------|


  E E E E E E E E   E E E E E E E E   E E E H    E   E E E E E Q.
|-----------------|-----------------|--------------|------------------||
|-----------------|-----------------|--------------|-----------------o||
|-----------------|-6-6-6-6---3-3-3-|-4-4-4------3-|-4-4-4-3-4-3-----o||
|-1-1-1-1---4-4-4-|-----------------|--------------|------------------||


  Wx9
|--------*|
|--------*|
|--------*|
|--------*|


Duration Legend
---------------
W - whole; H - half; Q - quarter; E - 8th; S - 16th; T - 32nd; X - 64th; a - acciaccatura
+ - note tied to previous; . - note dotted; .. - note double dotted
Uncapitalized letters represent notes that are staccato (1/2 duration)
Irregular groupings are notated above the duration line
Duration letters will always appear directly above the note/fret number it represents the
duration for.  Duration letters with no fret number below them represent rests.  Multi-
bar rests are notated in the form Wxn, where n is the number of bars to rest for.  Low
melody durations appear below the staff

Tablature Legend
----------------
 h   - hammer-on
 p   - pull-off
 b   - bend
 pb  - pre-bend
 r   - bend release (if no number after the r, then release immediately)
 /\  - slide into or out of (from/to "nowhere")
 s   - legato slide
 S   - shift slide
  - natural harmonic
[n]  - artificial harmonic
n(n) - tapped harmonic
 ~   - vibrato
 tr  - trill
 T   - tap
 TP  - trem. picking
 PM  - palm muting
\n/  - tremolo bar dip; n = amount to dip
 \n  - tremolo bar down
 n/  - tremolo bar up
/n\  - tremolo bar inverted dip
 =   - hold bend; also acts as connecting device for hammers/pulls
 <>  - volume swell (louder/softer)
 x   - on rhythm slash represents muted slash
 o   - on rhythm slash represents single note slash

Misc Legend
-----------
 |  - bar
||  - double bar
||o - repeat start
o|| - repeat end
*|  - double bar (ending)
 :  - bar (freetime)
 $  - Segno
 &  - Coda
Tempo markers -  = BPM(8/16=s8/s16), where s8 = swing 8ths, s16 = swing 16ths





Comments


Popular H.I.M tabs & chords
Enjoy The Silence Bass Tabs
Cyanide Sun Chords
Loves Requiem Chords
Close To The Flame 4 Tabs
Fortress Of Tears 1 Tabs
In Joy And Sorrow 1 Tabs
Heartache Every Moment 2 Ukulele
In Venera Veritas Ukulele
Join Me Ukulele
When Love And Death Embrace Ukulele


Song lyrics



↑ Back to top | Tablatures and chords are parodies/interpretations of the original songs. You may use it for private study, scholarship, research or language learning purposes only
© 2014 AZChords.com Contact us | Privacy policy | DMCA | Add/correct tabs | Request tabs | Top 50 tabs