>
 >
In Joy And Sorrow 2

In Joy And Sorrow 2 Bass Tabs

H.I.M - In Joy And Sorrow 2 chords, tabs, tablatures, lyrics

Guitar lessons | Add/correct | Request | Top 50 tabs Artists:  A B C D E F G H I J K L M N O P Q R S T U V W X Y Z 0-9

In Joy And Sorrow 2 Bass Tabs – H.I.M

CD, Sheet music, Poster

Do you like In Joy And Sorrow 2? Share with your friends now
Bass TabsBass Tabs v2ChordsChords v2Chords v3Chords v4Chords v5TabsTabs v2Tabs v3UkuleleUkulele v2
#------------------------------------------------------------------------------##

                          IN JOY AND SORROW (Bassline)
                               As recorded by HIM
           (From the 2001 Album DEEP SHADOWS AND BRILLIANT HIGHLIGHTS)

Words and Music by Ville Valo
Arranged by HIM

Gtr I (E A D G B E) - 'Track 1'
Gtr II (E A D G B E) - 'Track 4'
Gtr III (E A D G B E) - 'Track 2'
Gtr IV (E A D G) - 'Untitled'

 Intro-Verse
  Q=113
 4/4
  Gtr I
  W          W          W          W
|----------|----------|----------|------|
|----------|----------|----------|------|
|----------|----------|----------|------|
|----------|----------|----------|------|
|----------|----------|----------|------|
|----------|----------|----------|------|


  W          W          W          +H     H
|----------|----------|----------|-------------|
|----------|----------|----------|-------------|
|----------|----------|----------|-------------|
|----------|----------|----------|-------------|
|----------|----------|-3--------|-(3)----5----|
|----------|----------|----------|-------------|


  W          W          W          H    Q  Q
|----------|----------|----------|------------|
|----------|----------|----------|------------|
|----------|----------|----------|------------|
|----------|----------|-3--------|-2----------|
|-7--------|-5--------|----------|------3--5--|
|----------|----------|----------|------------|


  W          W          W                 +W
|----------|----------|-----------------|-------------------|
|----------|----------|-----------------|-------------------|
|----------|----------|-----------------|-------------------|
|----------|----------|-----------------|-------------------|
|-7--------|-5--------|-----------------|-------------------|
|----------|----------|-7---------------|-(7)---------------|
|
| Gtr IV
| W          W          E E E E E E E E    E  E E E E E E E
|----------|----------|-----------------|-------------------|
|----------|----------|-----------------|-------------------|
|----------|----------|-----------------|-------------------|
|----------|----------|-0-0-0-0-0-0-0-0-|--0--0-0-0-0-0-0-0-|


 Chorus
  W              +W              +W              W
|--------------|---------------|---------------|--------------|
|--------------|---------------|---------------|--------------|
|--------------|---------------|---------------|--------------|
|--------------|---------------|---------------|--------------|
|-7------------|-(7)-----------|-(7)-----------|-5------------|
|--------------|---------------|---------------|--------------|
|
| Gtr IV
| Q.   Q  Q.      Q.   Q  Q.      Q.   Q  Q.     Q.   Q  Q.
|--------------|---------------|---------------|--------------|
|--------------|---------------|---------------|--------------|
|--------------|---------------|---------------|--------------|
|-5----5--5----|--5----5--5----|--8----8--8----|-3----3--3----|


  W              +W              +W              H      Q    Q
|--------------|---------------|---------------|----------------|
|--------------|---------------|---------------|----------------|
|--------------|---------------|---------------|----------------|
|--------------|---------------|---------------|----------------|
|-3------------|-(3)-----------|-(3)-----------|-2------3----5--|
|--------------|---------------|---------------|----------------|
|
| Q.   Q  Q.      Q.   Q  Q.      Q.   Q  Q.     Q.   Q   Q.
|--------------|---------------|---------------|----------------|
|--------------|---------------|---------------|----------------|
|--------------|---------------|---------------|----------------|
|-1----1--1----|--1----1--1----|--8----8--8----|-3----3---4-----|


  W              +W              +W              W
|--------------|---------------|---------------|--------------|
|--------------|---------------|---------------|--------------|
|--------------|---------------|---------------|--------------|
|--------------|---------------|---------------|--------------|
|-7------------|-(7)-----------|-(7)-----------|-5------------|
|--------------|---------------|---------------|--------------|
|
| Q.   Q  Q.      Q.   Q  Q.      Q.   Q  Q.     Q.   Q  Q.
|--------------|---------------|---------------|--------------|
|--------------|---------------|---------------|--------------|
|--------------|---------------|---------------|--------------|
|-5----5--5----|--5----5--5----|--8----8--8----|-3----3--3----|


  W              +W              +W              W
|--------------|---------------|---------------|--------------|
|--------------|---------------|---------------|--------------|
|--------------|---------------|---------------|--------------|
|--------------|---------------|---------------|--------------|
|-3------------|-(3)-----------|-(3)-----------|-2------------|
|--------------|---------------|---------------|--------------|
|
| Q.   Q  Q.      Q.   Q  Q.      Q.   Q  Q.     Q.   Q  Q.
|--------------|---------------|---------------|--------------|
|--------------|---------------|---------------|--------------|
|--------------|---------------|---------------|--------------|
|-1----1--1----|--1----1--1----|--8----8--8----|-3----3--3----|


 Verse II
  W              W              W              W
|--------------|--------------|--------------|----------------|
|--------------|--------------|--------------|----------------|
|--------------|--------------|--------------|----------------|
|--------------|--------------|--------------|----------------|
|--------------|--------------|--------------|----------------|
|--------------|--------------|--------------|----------------|
|
| Gtr IV
| Q.   Q  Q.     Q.   Q  Q.     Q.   Q  Q.     Q.   Q  E. E.
|--------------|--------------|--------------|----------------|
|--------------|--------------|--------------|----------------|
|--------------|--------------|--------------|----------------|
|-8----8--8----|-3----3--3----|-5----5--5----|-5----5--5--7---|


  Gtr I
  W              W               W               +H        H
|--------------|--------------|---------------|--------------------------|
|--------------|--------------|---------------|--------------------------|
|--------------|--------------|---------------|--------------------------|
|--------------|--------------|---------------|--------------------------|
|--------------|--------------|--3------------|--(3)-------5-------------|
|--------------|--------------|---------------|--------------------------|
|
| Gtr II
| W              W               W               +H       +E  E  E     E
|--------------|--------------|--8------------|--(8)------(8)-7--8----10-|
|--------------|--------------|-10------------|-(10)-----(10)------------|
|--------------|--------------|--9------------|--(9)------(9)------------|
|--------------|--------------|---------------|--------------------------|
|--------------|--------------|---------------|--------------------------|
|--------------|--------------|---------------|--------------------------|
|
| Gtr IV
| Q.   Q  Q.     Q.   Q  Q.      Q.   Q  Q.       Q.   Q      E.   E.
|--------------|--------------|---------------|--------------------------|
|--------------|--------------|---------------|--------------------------|
|--------------|--------------|---------------|--------------------------|
|-8----8--8----|-3----3--3----|--5----5--5----|---5----5------5----7-----|


   W                      W
|----------------------|---------------|
|----------------------|---------------|
|----------------------|---------------|
|----------------------|---------------|
|--7-------------------|--5------------|
|----------------------|---------------|
|
|  H       +E   E   Q     W
|-12------(12)-13--12--|-10------------|
|----------------------|---------------|
|----------------------|---------------|
|----------------------|---------------|
|----------------------|---------------|
|----------------------|---------------|
|
|  Q.   Q       Q.        Q.   Q  Q.
|----------------------|---------------|
|----------------------|---------------|
|----------------------|---------------|
|--8----8-------8------|--3----3--3----|


   W                     H       Q    Q
|----------------------|-------------------|
|----------------------|-------------------|
|----------------------|-------------------|
|--3-------------------|-2-----------------|
|----------------------|---------3----5----|
|----------------------|-------------------|
|
|  H       +E   E  Q     H      +E  E E  E
|-13------(13)-12-10---|-8------(8)-7-8-10-|
|----------------------|-------------------|
|----------------------|-------------------|
|----------------------|-------------------|
|----------------------|-------------------|
|----------------------|-------------------|
|
|  Q.   E  +Q      E E   Q.   Q     E E  E
|----------------------|-------------------|
|----------------------|-------------------|
|--5----5--(5)-----7-5-|-------------------|
|----------------------|-8----8-----8-8--8-|


   W                      W
|----------------------|------------------|
|----------------------|------------------|
|----------------------|------------------|
|----------------------|------------------|
|--7-------------------|--5---------------|
|----------------------|------------------|
|
|  H       +E   E   Q     H      Q     Q
|-12------(12)-13--12--|-10------8----10--|
|----------------------|------------------|
|----------------------|------------------|
|----------------------|------------------|
|----------------------|------------------|
|----------------------|------------------|
|
|  Q.   Q       Q.        Q.   Q   Q.
|----------------------|------------------|
|----------------------|------------------|
|----------------------|------------------|
|--8----8-------8------|--3----3---3------|


   W                  +W
|------------------|--------------------|
|------------------|--------------------|
|------------------|--------------------|
|------------------|--------------------|
|------------------|--------------------|
|--7---------------|--(7)---------------|
|
|  W                  +W
|-12---------------|-(12)---------------|
|------------------|--------------------|
|------------------|--------------------|
|------------------|--------------------|
|------------------|--------------------|
|------------------|--------------------|
|
|  E E E E E E E E     E  E E E E E E E
|------------------|--------------------|
|------------------|--------------------|
|------------------|--------------------|
|--0-0-0-0-0-0-0-0-|---0--0-0-0-0-0-0-0-|


 Chorus
  W              +W              +W              W
|--------------|---------------|---------------|--------------|
|--------------|---------------|---------------|--------------|
|--------------|---------------|---------------|--------------|
|--------------|---------------|---------------|--------------|
|-7------------|-(7)-----------|-(7)-----------|-5------------|
|--------------|---------------|---------------|--------------|
|
| Q.   Q  Q.      Q.   Q  Q.      Q.   Q  Q.     Q.   Q  Q.
|--------------|---------------|---------------|--------------|
|--------------|---------------|---------------|--------------|
|--------------|---------------|---------------|--------------|
|-5----5--5----|--5----5--5----|--8----8--8----|-3----3--3----|


  Gtr I
   W                +W                +W               H      Q    Q
|-----------------|-----------------|---------------|-----------------|
|-----------------|-----------------|---------------|-----------------|
|-----------------|-----------------|---------------|-----------------|
|-----------------|-----------------|---------------|-----------------|
|--3--------------|-(3)-------------|-(3)-----------|--2------3----5--|
|-----------------|-----------------|---------------|-----------------|
|
| Gtr III
|  H       H         H       H         W               W
|-17------19------|-20------22------|-24------------|-22--------------|
|-----------------|-----------------|---------------|-----------------|
|-----------------|-----------------|---------------|-----------------|
|-----------------|-----------------|---------------|-----------------|
|-----------------|-----------------|---------------|-----------------|
|-----------------|-----------------|---------------|-----------------|
|
| Gtr IV
|  Q.   Q    Q.      Q.   Q    Q.      Q.   Q  Q.      Q.   Q   Q.
|-----------------|-----------------|---------------|-----------------|
|-----------------|-----------------|---------------|-----------------|
|-----------------|-----------------|---------------|-----------------|
|--1----1----1----|--1----1----1----|--8----8--8----|--3----3---4-----|


   W                +W                  +W                   W
|-----------------|-------------------|-------------------|-------------------|
|-----------------|-------------------|-------------------|-------------------|
|-----------------|-------------------|-------------------|-------------------|
|-----------------|-------------------|-------------------|-------------------|
|--7--------------|-(7)---------------|-(7)---------------|--5----------------|
|-----------------|-------------------|-------------------|-------------------|
|
|  H       H         H       Q     Q     H       Q     Q     H.          E  E
|-20------22------|-20------19----17--|-15------13----12--|-10----------20-22-|
|-----------------|-------------------|-------------------|-------------------|
|-----------------|-------------------|-------------------|-------------------|
|-----------------|-------------------|-------------------|-------------------|
|-----------------|-------------------|-------------------|-------------------|
|-----------------|-------------------|-------------------|-------------------|
|
|  Q.   Q    Q.      Q.   Q    Q.        Q.   Q    Q.        Q.   Q  Q.
|-----------------|-------------------|-------------------|-------------------|
|-----------------|-------------------|-------------------|-------------------|
|-----------------|-------------------|-------------------|-------------------|
|--5----5----5----|--5----5----5------|--8----8----8------|--3----3--3--------|


   W                +W                  +W               W
|-----------------|-------------------|---------------|---------------|
|-----------------|-------------------|---------------|---------------|
|-----------------|-------------------|---------------|---------------|
|-----------------|-------------------|---------------|---------------|
|--3--------------|-(3)---------------|-(3)-----------|--2------------|
|-----------------|-------------------|---------------|---------------|
|
|  H       H         H       Q     Q     W               W
|-24------22------|-20------19----17--|-15------------|---------------|
|-----------------|-------------------|---------------|-15------------|
|-----------------|-------------------|---------------|---------------|
|-----------------|-------------------|---------------|---------------|
|-----------------|-------------------|---------------|---------------|
|-----------------|-------------------|---------------|---------------|
|
|  Q.   Q    Q.      Q.   Q    Q.        Q.   Q  Q.      Q.   Q  Q.
|-----------------|-------------------|---------------|---------------|
|-----------------|-------------------|---------------|---------------|
|-----------------|-------------------|---------------|---------------|
|--1----1----1----|--1----1----1------|--8----8--8----|--3----3--3----|


 Interlude
   H     H       H     H       W           +W
|-------------|-------------|-----------|---------|
|-------------|-------------|-----------|---------|
|-------------|-------------|-----------|---------|
|--2----------|-------------|-----------|---------|
|--------3----|--5----------|--7--------|--(7)----|
|-------------|--------7----|-----------|---------|
|
|  H     H       H     H       W           +W
|-------------|-------------|-----------|---------|
|-17----------|-15----------|-17--------|-(17)----|
|-------17----|-------16----|-----------|---------|
|-------------|-------------|-----------|---------|
|-------------|-------------|-----------|---------|
|-------------|-------------|-----------|---------|


   H     H       H     H       W           +W
|-------------|-------------|-----------|---------|
|-------------|-------------|-----------|---------|
|-------------|-------------|-----------|---------|
|-------------|-------------|-----------|---------|
|--7----------|-------------|-----------|---------|
|--------8----|-10-----7----|--8--------|--(8)----|
|
|  H     H       H     H       W           +W
|-------------|-------------|-----------|---------|
|-17----------|-15----------|-----------|---------|
|-------17----|-------16----|-17--------|-(17)----|
|-------------|-------------|-----------|---------|
|-------------|-------------|-----------|---------|
|-------------|-------------|-----------|---------|


   H     H       H     H       W           +W
|-------------|-------------|-----------|---------|
|-------------|-------------|-----------|---------|
|-------------|-------------|-----------|---------|
|-------------|-------------|-----------|---------|
|--7----------|-------------|--7--------|--(7)----|
|--------8----|-10-----7----|-----------|---------|
|
|  H     H       H     H       W           +W
|-------------|-------------|-----------|---------|
|-17----------|-15----------|-17--------|-(17)----|
|-------17----|-------16----|-----------|---------|
|-------------|-------------|-----------|---------|
|-------------|-------------|-----------|---------|
|-------------|-------------|-----------|---------|


   H     H       H     H       W           +W
|-------------|-------------|-----------|---------|
|-------------|-------------|-----------|---------|
|-------------|-------------|-----------|---------|
|-------------|-------------|-----------|---------|
|--7----------|-------------|-----------|---------|
|--------8----|-10-----7----|--8--------|--(8)----|
|
|  H     H       H     H       W           +W
|-------------|-------------|-----------|---------|
|-17----------|-15----------|-----------|---------|
|-------17----|-------16----|-17--------|-(17)----|
|-------------|-------------|-----------|---------|
|-------------|-------------|-----------|---------|
|-------------|-------------|-----------|---------|


 Out-Chorus
  W              +W              +W                W
|--------------|---------------|-----------------|--------------|
|--------------|---------------|-----------------|--------------|
|--------------|---------------|-----------------|--------------|
|--------------|---------------|-----------------|--------------|
|-9------------|-(9)-----------|-(9)-------------|-7------------|
|--------------|---------------|-----------------|--------------|
|
| Gtr IV
| Q.   Q  Q.      Q.   Q  Q.      Q.    Q   Q.     Q.   Q  Q.
|--------------|---------------|-----------------|--------------|
|--------------|---------------|-----------------|--------------|
|--------------|---------------|-----------------|--------------|
|-7----7--7----|--7----7--7----|-10----10--10----|-5----5--5----|


   W                +W                +W                 H      Q    Q
|-----------------|-----------------|-----------------|-----------------|
|-----------------|-----------------|-----------------|-----------------|
|-----------------|-----------------|-----------------|-----------------|
|-----------------|-----------------|-----------------|-----------------|
|--5--------------|-(5)-------------|-(5)-------------|--4------5----7--|
|-----------------|-----------------|-----------------|-----------------|
|
| Gtr III
|  H       H         H       H         W                 W
|-19------21------|-22------24------|-26--------------|-24--------------|
|-----------------|-----------------|-----------------|-----------------|
|-----------------|-----------------|-----------------|-----------------|
|-----------------|-----------------|-----------------|-----------------|
|-----------------|-----------------|-----------------|-----------------|
|-----------------|-----------------|-----------------|-----------------|
|
| Gtr IV
|  Q.   Q    Q.      Q.   Q    Q.      Q.    Q   Q.      Q.   Q   Q.
|-----------------|-----------------|-----------------|-----------------|
|-----------------|-----------------|-----------------|-----------------|
|-----------------|-----------------|-----------------|-----------------|
|--3----3----3----|--3----3----3----|-10----10--10----|--5----5---6-----|


   W                +W
|-----------------|-------------------|
|-----------------|-------------------|
|-----------------|-------------------|
|-----------------|-------------------|
|--9--------------|-(9)---------------|
|-----------------|-------------------|
|
|  H       H         H       Q     Q
|-22------24------|-22------21----19--|
|-----------------|-------------------|
|-----------------|-------------------|
|-----------------|-------------------|
|-----------------|-------------------|
|-----------------|-------------------|
|
| Gtr IV
|  Q.   Q    Q.      Q.   Q    Q.
|-----------------|-------------------|
|-----------------|-------------------|
|-----------------|-------------------|
|--7----7----7----|--7----7----7------|


  +W                     W
|---------------------|-------------------|
|---------------------|-------------------|
|---------------------|-------------------|
|---------------------|-------------------|
|-(9)-----------------|--7----------------|
|---------------------|-------------------|
|
|  H        Q      Q     H.          E  E
|-17-------15-----14--|-12----------22-24-|
|---------------------|-------------------|
|---------------------|-------------------|
|---------------------|-------------------|
|---------------------|-------------------|
|---------------------|-------------------|
|
|  Q.    Q     Q.        Q.   Q  Q.
|---------------------|-------------------|
|---------------------|-------------------|
|---------------------|-------------------|
|-10----10----10------|--5----5--5--------|


   W                +W                  +W                 W
|-----------------|-------------------|-----------------|---------------|
|-----------------|-------------------|-----------------|---------------|
|-----------------|-------------------|-----------------|---------------|
|-----------------|-------------------|-----------------|---------------|
|--5--------------|-(5)---------------|-(5)-------------|--4------------|
|-----------------|-------------------|-----------------|---------------|
|
|  H       H         H       Q     Q     W                 W
|-26------24------|-22------21----19--|-17--------------|---------------|
|-----------------|-------------------|-----------------|-17------------|
|-----------------|-------------------|-----------------|---------------|
|-----------------|-------------------|-----------------|---------------|
|-----------------|-------------------|-----------------|---------------|
|-----------------|-------------------|-----------------|---------------|
|
|  Q.   Q    Q.      Q.   Q    Q.        Q.    Q   Q.      Q.   Q  Q.
|-----------------|-------------------|-----------------|---------------|
|-----------------|-------------------|-----------------|---------------|
|-----------------|-------------------|-----------------|---------------|
|--3----3----3----|--3----3----3------|-10----10--10----|--5----5--5----|


  W              +W              +W                W
|--------------|---------------|-----------------|--------------|
|--------------|---------------|-----------------|--------------|
|--------------|---------------|-----------------|--------------|
|-4------------|-(4)-----------|-(4)-------------|-2------------|
|--------------|---------------|-----------------|--------------|
|--------------|---------------|-----------------|--------------|
|
| Q.   Q  Q.      Q.   Q  Q.      Q.    Q   Q.     Q.   Q  Q.
|--------------|---------------|-----------------|--------------|
|--------------|---------------|-----------------|--------------|
|--------------|---------------|-----------------|--------------|
|-7----7--7----|--7----7--7----|-10----10--10----|-5----5--5----|


  Gtr I
   W                +W                +W                 H      Q    Q
|-----------------|-----------------|-----------------|-----------------|
|-----------------|-----------------|-----------------|-----------------|
|-----------------|-----------------|-----------------|-----------------|
|--0--------------|-(0)-------------|-(0)-------------|-----------------|
|-----------------|-----------------|-----------------|--4------5----7--|
|-----------------|-----------------|-----------------|-----------------|
|
| Gtr III
|  H       H         H       H         W                 W
|-19------21------|-22------24------|-26--------------|-24--------------|
|-----------------|-----------------|-----------------|-----------------|
|-----------------|-----------------|-----------------|-----------------|
|-----------------|-----------------|-----------------|-----------------|
|-----------------|-----------------|-----------------|-----------------|
|-----------------|-----------------|-----------------|-----------------|
|
| Gtr IV
|  Q.   Q    Q.      Q.   Q    Q.      Q.    Q   Q.      Q.   Q   Q.
|-----------------|-----------------|-----------------|-----------------|
|-----------------|-----------------|-----------------|-----------------|
|-----------------|-----------------|-----------------|-----------------|
|--3----3----3----|--3----3----3----|-10----10--10----|--5----5---6-----|


   W                +W
|-----------------|-------------------|
|-----------------|-------------------|
|-----------------|-------------------|
|-----------------|-------------------|
|--9--------------|-(9)---------------|
|-----------------|-------------------|
|
|  H       H         H       Q     Q
|-22------24------|-22------21----19--|
|-----------------|-------------------|
|-----------------|-------------------|
|-----------------|-------------------|
|-----------------|-------------------|
|-----------------|-------------------|
|
|  Q.   Q    Q.      Q.   Q    Q.
|-----------------|-------------------|
|-----------------|-------------------|
|-----------------|-------------------|
|--7----7----7----|--7----7----7------|


  +W                     W
|---------------------|-------------------|
|---------------------|-------------------|
|---------------------|-------------------|
|---------------------|-------------------|
|-(9)-----------------|--7----------------|
|---------------------|-------------------|
|
|  H        Q      Q     H.          E  E
|-17-------15-----14--|-12----------22-24-|
|---------------------|-------------------|
|---------------------|-------------------|
|---------------------|-------------------|
|---------------------|-------------------|
|---------------------|-------------------|
|
|  Q.    Q     Q.        Q.   Q  Q.
|---------------------|-------------------|
|---------------------|-------------------|
|---------------------|-------------------|
|-10----10----10------|--5----5--5--------|


   W                +W                  +W                 W
|-----------------|-------------------|-----------------|---------------|
|-----------------|-------------------|-----------------|---------------|
|-----------------|-------------------|-----------------|---------------|
|-----------------|-------------------|-----------------|---------------|
|--5--------------|-(5)---------------|-(5)-------------|--4------------|
|-----------------|-------------------|-----------------|---------------|
|
|  H       H         H       Q     Q     W                 W
|-26------24------|-22------21----19--|-17--------------|---------------|
|-----------------|-------------------|-----------------|-17------------|
|-----------------|-------------------|-----------------|---------------|
|-----------------|-------------------|-----------------|---------------|
|-----------------|-------------------|-----------------|---------------|
|-----------------|-------------------|-----------------|---------------|
|
|  Q.   Q    Q.      Q.   Q    Q.        Q.    Q   Q.      Q.   Q  Q.
|-----------------|-------------------|-----------------|---------------|
|-----------------|-------------------|-----------------|---------------|
|-----------------|-------------------|-----------------|---------------|
|--3----3----3----|--3----3----3------|-10----10--10----|--5----5--5----|


 4/4
  S  E. +Q    +H         +W              +S  S E Q    H         W
|----------------------|---------------|----------------------|---------------*|
|----------------------|---------------|----------------------|---------------*|
|----------------------|---------------|----------------------|---------------*|
|----4--(4)---(4)------|-(4)-----------|-(4)------------------|---------------*|
|----------------------|---------------|----------------------|---------------*|
|----------------------|---------------|----------------------|---------------*|
|
| Q.        Q     Q.      Q.   Q  Q.      Q.        Q    Q.     Q.   Q  Q.
|----------------------|---------------|----------------------|---------------*|
|----------------------|---------------|----------------------|---------------*|
|----------------------|---------------|----------------------|---------------*|
|-7---------7-----7----|--7----7--7----|-10--------10---10----|-5----5--5-----*|


Duration Legend
---------------
W - whole; H - half; Q - quarter; E - 8th; S - 16th; T - 32nd; X - 64th; a - acciaccatura
+ - note tied to previous; . - note dotted; .. - note double dotted
Uncapitalized letters represent notes that are staccato (1/2 duration)
Irregular groupings are notated above the duration line
Duration letters will always appear directly above the note/fret number it represents the
duration for.  Duration letters with no fret number below them represent rests.  Multi-
bar rests are notated in the form Wxn, where n is the number of bars to rest for.  Low
melody durations appear below the staff

Tablature Legend
----------------
 h   - hammer-on
 p   - pull-off
 b   - bend
 pb  - pre-bend
 r   - bend release (if no number after the r, then release immediately)
 /\  - slide into or out of (from/to "nowhere")
 s   - legato slide
 S   - shift slide
  - natural harmonic
[n]  - artificial harmonic
n(n) - tapped harmonic
 ~   - vibrato
 tr  - trill
 T   - tap
 TP  - trem. picking
 PM  - palm muting
\n/  - tremolo bar dip; n = amount to dip
 \n  - tremolo bar down
 n/  - tremolo bar up
/n\  - tremolo bar inverted dip
 =   - hold bend; also acts as connecting device for hammers/pulls
 <>  - volume swell (louder/softer)
 x   - on rhythm slash represents muted slash
 o   - on rhythm slash represents single note slash

Misc Legend
-----------
 |  - bar
||  - double bar
||o - repeat start
o|| - repeat end
*|  - double bar (ending)
 :  - bar (freetime)
 $  - Segno
 &  - Coda
Tempo markers -  = BPM(8/16=s8/s16), where s8 = swing 8ths, s16 = swing 16ths





Comments


Popular H.I.M tabs & chords
Love's Requiem Bass Tabs
Soul On Fire Intro Bass Tabs
Sweet Pandemonium 3 Bass Tabs
Vampire - Bass Adaption Bass Tabs
Dont Fear The Reaper Chords
Funeral Of Hearts 2 Tabs
In Joy And Sorrow (Intro) Tabs
In The Nightside Of Eden Intro Tabs
Please Don't Let It Go 1 Tabs
The Funeral Of Hearts 2 Tabs


Song lyrics



↑ Back to top | Tablatures and chords are parodies/interpretations of the original songs. You may use it for private study, scholarship, research or language learning purposes only
© 2014 AZChords.com Contact us | Privacy policy | DMCA | Add/correct tabs | Request tabs | Top 50 tabs