» » »

In Joy And Sorrow Tabs (ver.3)

Artists:  A B C D E F G H I J K L M N O P Q R S T U V W X Y Z # 

In Joy And Sorrow Tabs (ver.3)

H.I.M
Rating:
0/5 (0 votes)

Tabs too difficult? Try these video lessons and learn fast.
                HIM - In Joy And Sorrow

Chorus (play this on the first and second chorus)
|---------------------------------------|
|---------------------------------------|
|---------------------------------------|
|-2-2-2-2-2-2-2-2-2-2-2-2-2-------------|
|-2-2-2-2-2-2-2-2-2-2-2-2-2-------------|
|-0-0-0-0-0-0-0-0-0-0-0-0-0-------------|

|-------------------------------------------------------------------|
|-------------------------------------------------------------------|
|-------------------------------------------------------------------|
|-7---10---5---7---10---5---6---7--10---5---7--10---5---7-----------|
|-7---10---5---7---10---5---6---7--10---5---7--10---5---7-----------|
|-5---8---3---5----8----3---4---5---8---3--5---8----3---5-----------|

(play this on the third chorus)
|--------------------------------------|
|--------------------------------------|
|--------------------------------------|
|-7-7-7-7-7-7-7-7-7-7-7-7-7------------|
|-7-7-7-7-7-7-7-7-7-7-7-7-7------------|
|-5-5-5-5-5-5-5-5-5-5-5-5-5------------|

|----------------------------------------------------------------------|
|----------------------------------------------------------------------|
|----------------------------------------------------------------------|
|-9---12---7---9---12---7---8---9---12---7--9--12--7-------------------|  x 2
|-9---12---7---9---12---7---8---9---12---7--9--12--7-------------------|
|-7---10---5---7---10---5---6---7---10---5--7--10--5-------------------|
hope this helps a bit
            
Tabs too difficult? Try these video lessons and learn fast.


comments powered by Disqus
↑ Back to top | Tablatures and chords are parodies/interpretations of the original songs. You may use it for private study, scholarship, research or language learning purposes only