» » »

H.I.M, Fortress Of Tears Tabs (ver.2)

Artists:  A B C D E F G H I J K L M N O P Q R S T U V W X Y Z # 

Fortress Of Tears Tabs (ver.2)

H.I.M Tabs
Rating:
0/5 (0 votes)
Fortress Of Tears lessons Tabs too difficult? Try these video lessons and learn fast
                Intro: Played twice
------------------------------------------------------------
------------5/6--5-5-5\3------------------------------------
------------5/7--5-5-5\3--2H3P2-0---------------------------
------------------------------------------------------------
------------------------------------------------------------
------------------------------------------------------------

Main Riff
------------------------------------------------------------
------------------------------------------------------------
------------------------------------------------------------
--7/9-9-9-9---7x-7x--7\5------------------------------------
--7/9-9-9-9---7x-7x--7\5-----------7-(bend)-----------------
--5/7-7-7-7---5x-5x--5\3-2H3P2-0-0--------------------------

Chorus
----------------------------------10-10-10-10-10-10---------------------------
--10-10-10-10-10-10--7-7-7-7-7-7--10-10-10-10-10-10--10-10-10--12--12--12-----
--10-10-10-10-10-10--7-7-7-7-7-7--8--8--8--8--8--8---10-10-10--12--12--12-----
--8--8--8--8--8--8---5-5-5-5-5-5---------------------8--8--8---10--10--10-----

Sorry i'll tab the versus later
            

comments powered by Disqus
↑ Back to top | H.I.M Tabs for Fortress Of Tears. Lyrics for acoustic guitar and electric guitar. Tablatures and chords are parodies/interpretations of the original songs. You may use it for private study, scholarship, research or language learning purposes only