» » »

Fortress Of Tears Tabs (ver.1)

Artists:  A B C D E F G H I J K L M N O P Q R S T U V W X Y Z # 

Fortress Of Tears Tabs (ver.1)

H.I.M
Rating:
0/5 (0 votes)

Hard to play? Try these video lessons and learn fast.
                slide up=\, slide down=/, hammer on=h, p=pull off, b=bend

intro:
]--------------------------------------------------[
]-----------2\3-------222\0------------------------[
]-----------2\4-------222\0------------------------[
]--------------------------------------4h5p4-2-----[
]--------------------------------------------------[
]--------------------------------------------------[
]--------------------------------------------------[


riff 1
]--------------------------------------------------[
]--------------------------------------------------[
]--------------------------------------------------[
]----------7\9--999b--9/77-7/5---------------------[
]----------7\9--999b--9/77-7/5---------------------[
]----------5\7--777b--7/55-5/3---2h3p2-2-----------[

sry das all i have for ya now, i'm not too good at playin by ear, but das all i got for da first half of da song, but i'll find it latas, so till' den, latas .
            
Hard to play? Try these video lessons and learn fast. | Correct




comments powered by Disqus
↑ Back to top | Tablatures and chords are parodies/interpretations of the original songs. You may use it for private study, scholarship, research or language learning purposes only