» » »

H.I.M, Circle Of Fear Tabs (ver.3)

Artists:  A B C D E F G H I J K L M N O P Q R S T U V W X Y Z # 

Circle Of Fear Tabs (ver.3)

H.I.M Tabs
Rating:
0/5 (0 votes)
Circle Of Fear lessons Tabs too difficult? Try these video lessons and learn fast
                CIRCLE OF FEAR

I'M NOT 100% SURE, BUT IT SOUNDS RIGHT

Intro
e|----------------------------------------|
B|------------------0-----0/1-----0/1-----|
G|------------2---------------2-------2---|
D|-5-5-7----2-----2-----2-------2-------2-|
A|-5-5-7--0-----0-----0-------------------|
E|-3-3-5----------------------------------|
WHILE
E|-------------------------------------------|
B|-------------------------------------------|
G|-------------------------------------------|
D|---------------------5---7---5-------------|
A|-5-5-7---5-5-7---5-5-3---5---3---5---5-5-7-|
E|-3-3-5---3-3-5---3-3-3---5---3---3---3-3-5-|

THEN
e|---------------------------------------------|
B|-----1--------1-------1--------1-------0-----|
G|-------2--------2-------2--------2-------2---|
D|---2--------2--------2-------2-------2-------| Repeat till chorus
A|-0--------3----------------------------------|
E|-------------------3-------3-------0---------|

AM           C               EM
HEARTACHE'S KNOCKING ON HER DOOR
AM       C                 G  
SHADOWS DANCE OUTSIDE HER WINDOW
AM          C               EM
TEARS KEEP FALLING ON THE FLOOR
AM      C                 G 
AS THE WORLD AROUND HER CRAMBLES

F                 G
IF YOU WANNA SAVE HER
AM                         C
THEN FIRST YOU'LL HAVE TO SAVE YOURSELF
F              G                 AM
IF YOU WANNA FREE HER FROM THE HURT
              C
DON'T DO IT WITH YOUR PAIN
F               G               AM
IF YOU WANNA SEE HER SMILE AGAIN
                C
DON'T SHOW HER YOU'RE AFRAID
F             G                   AM
'CAUSE YOUR CIRCLE OF FEAR IS THE SAME

AM        C               EM
LOVE CAN BE AS COLD AS GRAVE
AM           C                 G  
A ONE WAY TICKET TO ENDLESS SORROW
AM    C               EM
AN EMPIRE OF GENTLE HATE
AM     C            G 
TODAY WITHOUT TOMORROW

F                 G
IF YOU WANNA SAVE HER
AM                         C
THEN FIRST YOU'LL HAVE TO SAVE YOURSELF
F              G                 AM
IF YOU WANNA FREE HER FROM THE HURT
              C
DON'T DO IT WITH YOUR PAIN
F               G               AM
IF YOU WANNA SEE HER SMILE AGAIN
                C
DON'T SHOW HER YOU'RE AFRAID
F             G                   AM
'CAUSE YOUR CIRCLE OF FEAR IS THE SAME

IT'S THE CIRCLE OF REGRET
THE CIRCLE OF HATE
THE CIRCLE OF DEATH
YOUR CIRCLE OF FEAR IS THE SAME
YOUR CIRCLE OF FEAR IS THE SAME

F                 G
IF YOU WANNA SAVE HER
AM                         C
THEN FIRST YOU'LL HAVE TO SAVE YOURSELF
(IF YOU WANNA SAVE HER)
F              G                 AM
IF YOU WANNA FREE HER FROM THE HURT
             C
DON'T DO IT WITH YOUR PAIN
(IF YOU WANNA FREE HER)
F               G               AM
IF YOU WANNA SEE HER SMILE AGAIN
                C
DON'T SHOW HER YOU'RE AFRAID
(IF YOU WANNA SEE HER)
F             G                   AM
'CAUSE YOUR CIRCLE OF FEAR IS THE SAME

e|-------------------------------------------------|
B|------1---------1--------1--------1-----0--------|
G|--------2---------2--------2---------------------|
D|---2----------2--------2--------2-----2----------|
A|-0----------0--------0--------0-----0------------|
E|-------------------------------------------------|

YOUR CIRCLE OF FEAR IS THE SAME...

e|----------------------------------|
B|------------0-----0/1-----0/1-----|
G|------2---------------2-------2---|
D|----2-----2-----2-------2-------2-|
A|--0-----0-----0-------------------|
E|----------------------------------|
WHILE
E|-------------------------------------------|
B|-------------------------------------------|
G|-------------------------------------------|
D|---------------------5---7---5-------------|
A|-5-5-7---5-5-7---5-5-3---5---3---5---5-5-7-|
E|-3-3-5---3-3-5---3-3-3---5---3---3---3-3-5-|
            

comments powered by Disqus
↑ Back to top | H.I.M Tabs for Circle Of Fear. Lyrics for acoustic guitar and electric guitar. Tablatures and chords are parodies/interpretations of the original songs. You may use it for private study, scholarship, research or language learning purposes only