» » »

Circle Of Fear Bass tabs (ver.2)

Artists:  A B C D E F G H I J K L M N O P Q R S T U V W X Y Z # 

Circle Of Fear Bass tabs (ver.2)

H.I.M
Rating:
0/5 (0 votes)

Hard to play? Try these video lessons and learn fast.
                Migé Amour rocks!!I think he uses a Fender American Precision Bass (3-Color Sunburst Maple Neck)

Intro
G-------------------------------------------------
D-------------------------------------------------
A-------------------------------------------------
E-3-3-5----3-3-5----3-3-1*----3----1----3----3-3-5


Verse
G-------------------------------------------------------------- (6 times)
D--------------------------------------------------------------
A----------------3-3-3-3-3-3-3-3-------------------------------
E-5-5-5-5-5-5-5-5---------------3-3-3-3-3-3-3-3-3-3-3-3-3-3-3-3


Chorus
G---------------------------------------------------------------- (3 times)
D----------------------------------------------------------------
A----------------------------------------------------------------
E-1-1-1-1-1-1-1-1-3-3-3-3-3-3-3-3-5-5-5-5-5-5-5-5-1-1-1-1-1-1-1-1


Past Chorus
G--------------------------------
D--------------------------------
A--------------------------------
E-1-1-1-1-1-1-1-1-3-3-3-3-3-3-3-3


Verse (6 times)
Chorus (3 times)
Past Chorus
Bridge (No bass)
Chorus (3 times)
Past Chorus
Verse (4 times)
Intro (let the last note ring)

*You can play this note as a low D, you have to turn your E string to a D then and than you have to play every note 2 frets to the right i think. Or as a high D or just as E-1- Do what you like:)

Maybe Mige makes more variations,but i only heard this one clearly one time in the chorus
G----------------------------------------------------------------
D----------------------------------------------------------------
A----------------------------------------------------------------
E-1-1-1-1-1-1-1-1-3-3-3-3-3-3-3-3-5-5-5-5-5-5-3-5-1-1-1-1-1-1-1-1

Its the third time of the last time when he plays this riff in the chorus:)
            
Hard to play? Try these video lessons and learn fast. | Correct




comments powered by Disqus
↑ Back to top | Tablatures and chords are parodies/interpretations of the original songs. You may use it for private study, scholarship, research or language learning purposes only