» » »

H.I.M, And Love Said No Bass tabs (ver.1)

Artists:  A B C D E F G H I J K L M N O P Q R S T U V W X Y Z # 

And Love Said No Bass tabs (ver.1)

H.I.M Tabs
 Rating:
4/5 (4 votes)
And Love Said No lessons Tabs too difficult? Try these video lessons and learn fast
1
                okay, so there are no versions of this song for bass on here, so i decided to go ahead 
put the version i tabbed out on here.

Intro/Chorus
|-------|
|-------|
|-------|
|--4-4--| x1

|-------------------------------------------|
|-------------------------------------------|
|---------------------3-3-333---------------|
|--2-2-222-0-00-0000---------5-55--4-4------| x2

Verse
|----------------------------------------------|
|-------45-------------------------45----------|
|----77----0252---77-5--0252---77----0252------|
|--2-------------2-----5------2----------------| x1

|------------|
|------------|
|--0--2-3----|
|---------4--| x1

|----------------------------------------------|
|-------45-------------------------45----------|
|----77----0252---77-5--0252---77----0252------|
|--2-------------2-----5------2----------------| x1

|--------------------------|
|--------------------------|
|--0--2-3---0--2-3---------|
|---------4--------4-4-----| x1

Intro/Chorus
|-------------------------------------------|
|-------------------------------------------|
|---------------------3-3-333---------------|
|--2-2-222-0-00-0000---------5-55--4-4------| x2

|-------------------------------------------|
|-------------------------------------------|
|---------------------3-3-333---------------|
|--2-2-222-4-44-4444---------5-55--4-4------| x1

|------------------------------------------|
|------------------------------------------|
|--------------------3-3-333---------------|
|--2-2-222-4-444-44---------5-55--4-4------| x1

Verse
|----------------------------------------------|
|-------45-------------------------45----------|
|----77----0252---77-5--0252---77----0252------|
|--2-------------2-----5------2----------------| x1

|------------|
|------------|
|--0--2-3----|
|---------4--| x1

|----------------------------------------------|
|-------45-------------------------45----------|
|----77----0252---77-5--0252---77----0252------|
|--2-------------2-----5------2----------------| x1

|--------------------------|
|--------------------------|
|--0--2-3---0--2-3---------|
|---------4--------4-4-----| x1

Intro/Chorus
|-------------------------------------------|
|-------------------------------------------|
|---------------------3-3-333---------------|
|--2-2-222-0-00-0000---------5-55--4-4------| x2

|-------------------------------------------|
|-------------------------------------------|
|---------------------3-3-333---------------|
|--2-2-222-4-44-4444---------5-55--4-4------| x1

|------------------------------------------|
|------------------------------------------|
|--------------------3-3-333---------------|
|--2-2-222-4-444-44---------5-55--4-4------| x1

..go right into bridge:
|--------------------------------------------|
|--------------------------------------------|
|----------------------------------0-00-3----|
|--5-4-2-2--5-4-2-2--5-4-2-2--5-4------------| x2

|--------------|
|--------------|
|--------------|
|--5-4-2~~-----| x1

Verse 2
|------------------------------------------|
|------------------------------------------|
|----77-5--0252---77-5--0252---77-5--------|
|--2------5------2-----5------2------5-----| x1

|-----------------------|
|-----------------------|
|--0--2-3---0--2-3------|
|---------4--------4-4--| x1

Rest

Intro/Chorus
|--------------------------------|
|--------------------------------|
|------------3-3-333-------------|
|--0-00-0000--------5-55-4-4-----| x1

|----------------------------------------|
|----------------------------------------|
|--------------------3-3-333-------------|
|--2-2-222-0-00-0000--------5-55-4-4-----| x1

|------------------------------------------|
|------------------------------------------|
|---------------------3-3-333--------------|
|--2-2-222-4-44-4444---------5-55-4-4------| x1

|------------------------------------|
|------------------------------------|
|-------------------3-3-333----------|
|--2-2-222-4-444-44--------5-55------| x1

|--------------------|
|--------------------|
|--3-3-333-----------|
|----------5-55-4-4--| x1

|---------------------------| x1
|---------------------------|
|--3-3-333------------------|
|----------5-55-4-4-2~------|


well that's it. 99.9% shure this is right. if you listen to the song you'll get it. if 
            
Submit corrections

comments powered by Disqus
↑ Back to top | H.I.M Bass for And Love Said No. Lyrics for acoustic guitar and electric guitar. 1 Tablatures and chords are parodies/interpretations of the original songs. You may use it for private study, scholarship, research or language learning purposes only