>
 >
And Love Said No 1

And Love Said No 1 Bass Tabs

H.I.M - And Love Said No 1 chords, tabs, tablatures, lyrics

Guitar lessons | Add/correct | Request | Top 50 tabs Artists:  A B C D E F G H I J K L M N O P Q R S T U V W X Y Z 0-9

And Love Said No 1 Bass Tabs – H.I.M

CD, Sheet music, Poster

Do you like And Love Said No 1? Share with your friends now
Bass TabsBass Tabs v2ChordsTabsTabs v2Tabs v3Ukulele
#------------------------------------------------------------------------------##

                           AND LOVE SAID NO (Bassline)
                              As recorded by H.I.M.
        (From the 2004 Album AND LOVE SAID NO: GREATEST HITS 1997 - 2004)

Words by Ville Valo

Music by H.I.M.
Arranged by H.I.M.

Gtr I (E A D G) - 'bass'
Gtr II (E A D G B E) - 'flute'

 Intro
  Q=130
 4/4
  Gtr I
  Wx3          H    E E E +E
|------------|----------------|
|------------|----------------|
|------------|----------------|
|------------|------2-2-3-(3)-|


    Q  Q.   E E E   +E  E Q.   E E E
||----------------|------------------|
||o---------------|------------------|
||o-7--7----7-7-5-|-(5)-5-5----5-5-5-|
||----------------|------------------|


  Q  Q.   E E  E    +E   E  E  E E E E +E
|----------------|---------------------------||
|----------------|--------------------------o||
|-------------10-|-(10)-10-10-10------------o||
|-8--8----8-8----|---------------2-2-3-(3)---||


   Verse
    Q  Q.   Q   E    +Q.    E E E  Q
||----------------|-------------------|
||o---------------|-------------------|
||o----7----9--10-|-(10)\-------5-----|
||--0-------------|---------0h5---h7--|


  Q  Q.   Q  E   +Q.   E E E  Q    Q  Q.   Q   E
|--------------|-----------------|-----------------|
|--------------|-----------------|-----------------|
|----7----5----|-----------5-----|----7----9--10---|
|-0----------3-|-(3)---3s5---h7--|-0---------------|


   +Q.    E E E  Q    H    +E  Q  E
|-------------------|---------------|
|-------------------|---------------|
|-(10)\-------5-----|-0----(0)-2--3-|
|---------0h5---h7--|---------------|


  +Q.   H    +E      H    +E  Q  E   +H     E E E +E
|-----------------||---------------|------------------|
|----------------o||---------------|------------------|
|-(3)------------o||-0----(0)-2--3-|-(3)--------------|
|-------2----(2)--||---------------|--------2-2-3-(3)-|


   Chorus
     Q  Q.        E E   E    +E  E Q.     E  E  E
||------------------------|-----------------------|
||o-----------------------|-----------------------|
||o--7--7---------7-7---5-|--(5)-5-5------5--5--5-|
||------------------------|-----------------------|
|
|   Gtr II
|    H       +E   Q     E    +H         Q    E  E
||--12------(12)-15---/17-|-(17)-------14---12-10-|
||o-----------------------|-----------------------|
||------------------------|-----------------------|
||------------------------|-----------------------|
||o-----------------------|-----------------------|
||------------------------|-----------------------|


   Q  Q.        E E   E    +E   E  E  E  E E  E +E
|-----------------------|-----------------------------||
|-----------------------|----------------------------o||
|--------------------10-|-(10)-10-10-10--------------o||
|--8--8---------8-8-----|----------------2-2--3-(3)---||
|
|  H       +E   Q     E    +H            Q    E  E
|-12------(12)-15---/17-|-(17)----------14---12-10----||
|-----------------------|----------------------------o||
|-----------------------|-----------------------------||
|-----------------------|-----------------------------||
|-----------------------|----------------------------o||
|-----------------------|-----------------------------||


   Q  Q.   E E E    +E  E Q.   E  E  E    Q  Q.   E E  E
|----------------|---------------------|-----------------|
|----------------|---------------------|-----------------|
|--7--7----7-7-9-|--(9)-9-9----9--9--9-|--3--3----3-3s10-|
|----------------|---------------------|-----------------|
|
|  W                +H.           E  E    W
|-12-------------|-(12)----------12-10-|-12--------------|
|----------------|---------------------|-----------------|
|----------------|---------------------|-----------------|
|----------------|---------------------|-----------------|
|----------------|---------------------|-----------------|
|----------------|---------------------|-----------------|


   +E   E  E  E Q   Q       Q  Q.   E E E
|------------------------|----------------|
|------------------------|----------------|
|-(10)-10-10-10-9---9----|--7--7----7-7-9-|
|------------------------|----------------|
|
|  +H.              E  E    W
|-(12)-------------12-10-|-12-------------|
|------------------------|----------------|
|------------------------|----------------|
|------------------------|----------------|
|------------------------|----------------|
|------------------------|----------------|


   +E  E H     E  E    Q  Q.   E E  E
|-------------------|-----------------|
|-------------------|-----------------|
|--(9)-9-9-----9--9-|--3--3----3-3s10-|
|-------------------|-----------------|
|
|  +H.         E  E    W
|-(12)--------12-10-|-12--------------|
|-------------------|-----------------|
|-------------------|-----------------|
|-------------------|-----------------|
|-------------------|-----------------|
|-------------------|-----------------|


   +E   E  E  E  E E  E  E    W           +H     Q    Q
|--------------------------|-----------|------------------|
|--------------------------|-----------|------------------|
|-(10)-10-10-10-10s9--9s10-|-----------|------------------|
|--------------------------|--8--------|--(8)----2----3---|
|
|                                                     >
|  +H.                E  E    W           +H.        +Q
|-(12)---------------12-10-|-12--------|-(12)-------(12)--|
|--------------------------|-----------|------------------|
|--------------------------|-----------|------------------|
|--------------------------|-----------|------------------|
|--------------------------|-----------|------------------|
|--------------------------|-----------|------------------|


   Verse
    Q  Q.   Q   E    +Q.    E E E  Q
||----------------|-------------------|
||o---------------|-------------------|
||o----7----9--10-|-(10)\-------5-----|
||--0-------------|---------0h5---h7--|


  Q  Q.   Q  E   +Q.   E E E  Q    Q  Q.   Q   E
|--------------|-----------------|-----------------|
|--------------|-----------------|-----------------|
|----7----5----|-----------5-----|----7----9--10---|
|-0----------3-|-(3)---3s5---h7--|-0---------------|


   +Q.    E E E  Q    H    +E  Q  E
|-------------------|---------------|
|-------------------|---------------|
|-(10)\-------5-----|-0----(0)-2--3-|
|---------0h5---h7--|---------------|


  +Q.   H    +E      H    +E  Q  E   +H     E E E +E
|-----------------||---------------|------------------|
|----------------o||---------------|------------------|
|-(3)------------o||-0----(0)-2--3-|-(3)--------------|
|-------2----(2)--||---------------|--------2-2-3-(3)-|


   Chorus
     Q  Q.        E E   E    +E  E Q.     E  E  E
||------------------------|-----------------------|
||o-----------------------|-----------------------|
||o--7--7---------7-7---5-|--(5)-5-5------5--5--5-|
||------------------------|-----------------------|
|
|   Gtr II
|    H       +E   Q     E    +H         Q    E  E
||--12------(12)-15---/17-|-(17)-------14---12-10-|
||o-----------------------|-----------------------|
||------------------------|-----------------------|
||------------------------|-----------------------|
||o-----------------------|-----------------------|
||------------------------|-----------------------|


   Q  Q.        E E   E    +E   E  E  E  E E  E +E
|-----------------------|-----------------------------||
|-----------------------|----------------------------o||
|--3--3---------3-3--10-|-(10)-10-10-10--------------o||
|-----------------------|----------------2-2--3-(3)---||
|
|  H       +E   Q     E    +H            Q    E  E
|-12------(12)-15---/17-|-(17)----------14---12-10----||
|-----------------------|----------------------------o||
|-----------------------|-----------------------------||
|-----------------------|-----------------------------||
|-----------------------|----------------------------o||
|-----------------------|-----------------------------||


   Q  Q.   E E E    +E  E Q.   E  E  E
|----------------|---------------------|
|----------------|---------------------|
|--7--7----7-7-9-|--(9)-9-9----9--9--9-|
|----------------|---------------------|
|
|  W                +H.           E  E
|-12-------------|-(12)----------12-10-|
|----------------|---------------------|
|----------------|---------------------|
|----------------|---------------------|
|----------------|---------------------|
|----------------|---------------------|


   Q  Q.   E E  E    +E   E  E  E Q   Q
|-----------------|------------------------|
|-----------------|------------------------|
|--3--3----3-3s10-|-(10)-10-10-10-9---9----|
|-----------------|------------------------|
|
|  W                 +H.              E  E
|-12--------------|-(12)-------------12-10-|
|-----------------|------------------------|
|-----------------|------------------------|
|-----------------|------------------------|
|-----------------|------------------------|
|-----------------|------------------------|


   Q  Q.   E E E    +E  E Q.   E  E  E    Q  Q.   E E  E    +H      E E E E
|----------------|---------------------|-----------------|------------------|
|----------------|---------------------|-----------------|------------------|
|--7--7----7-7-9-|--(9)-9-9----9--9--9-|--3--3----3-3s10-|-(10)----10-------|
|----------------|---------------------|-----------------|------------2-2-0-|
|
|  W                +H.           E  E    W                 +W
|-12-------------|-(12)----------12-10-|-12--------------|-(12)-------------|
|----------------|---------------------|-----------------|------------------|
|----------------|---------------------|-----------------|------------------|
|----------------|---------------------|-----------------|------------------|
|----------------|---------------------|-----------------|------------------|
|----------------|---------------------|-----------------|------------------|


 Breakdown
  +E  E Q  E E E E   +E  E Q  E E E E   +E  E Q  E E E E   +E  E E Q  E E E
|------------------|------------------|------------------|------------------|
|------------------|------------------|------------------|------------------|
|------------------|------------------|----------------0-|-(0)-0-0-3--------|
|-(0)-0-0----2-2-0-|-(0)-0-0----2-2-0-|-(0)-0-0----2-2---|------------2-2-0-|


  +E  E Q  E E E E   +E  E Q  E E E E   +E  E Q  E E E E   +E  E E Q  E E E
|------------------|------------------|------------------|------------------|
|------------------|------------------|------------------|------------------|
|------------------|------------------|----------------0-|-(0)-0-0-3--------|
|-(0)-0-0----2-2-0-|-(0)-0-0----2-2-0-|-(0)-0-0----2-2---|------------2-2-0-|


  +W           +W           +W           +W
|------------|------------|------------|--------|
|------------|------------|------------|--------|
|------------|------------|------------|--------|
|-(0)--------|-(0)--------|-(0)--------|-(0)----|


 Interlude
   H..        E    +Q   +E   E   E   E   Q
|----------------|------------------(7)------|
|------------(5)-|-(5)--(5)-(7)-(9)-----(9)--|
|-(7)------------|---------------------------|
|----------------|---------------------------|


   H..        E    +Q   +E   E   E   E   Q
|----------------|------------------(7)------|
|------------(5)-|-(5)--(5)-(7)-(9)-----(9)--|
|-(7)------------|---------------------------|
|----------------|---------------------------|


   H..        E    +Q   +E   E   E   E   Q     H    +E  Q  E   +Q.   H    +E
|----------------|------------------(7)------|---------------|----------------|
|------------(5)-|-(5)--(5)-(7)-(9)-----(9)--|---------------|----------------|
|-(7)------------|---------------------------|-0----(0)-2--3-|-(3)------------|
|----------------|---------------------------|---------------|-------2----(2)-|


  H    +E  Q  E   +H     E E E +E
|---------------|------------------|
|---------------|------------------|
|-0----(0)-2--3-|-(3)--------------|
|---------------|--------2-2-3-(3)-|


 Out-Chorus
  H..       E   +E  E Q.   E E E
|-------------|------------------|
|-------------|------------------|
|-----------5-|-(5)-5-5----5-5-5-|
|-------------|------------------|
|
| Gtr II
| W              W
|-------------|------------------|
|-------------|------------------|
|-------------|------------------|
|-------------|------------------|
|-------------|------------------|
|-------------|------------------|


   Q  Q.        E E  E    +E   E  E  E  E E  E  +E
|----------------------|----------------------------|
|----------------------|----------------------------|
|-------------------10-|-(10)-10-10-10--------------|
|--8--8---------8-8----|----------------2-2--3--(3)-|
|
|  H       +E   Q    E    +H            Q    E  +E
|-12------(12)-15---17-|-(17)----------14---15-(15)-|
|----------------------|----------------------------|
|----------------------|----------------------------|
|----------------------|----------------------------|
|----------------------|----------------------------|
|----------------------|----------------------------|


   Q  Q.        E E  E    +E  E Q.     E  E   E
|----------------------|-------------------------|
|----------------------|-------------------------|
|--7--7---------7-7--5-|--(5)-5-5------5--5---5--|
|----------------------|-------------------------|
|
|  H       +E   Q    E    +H         Q    E  +E
|-12------(12)-15---17-|-(17)-------14---15-(15)-|
|----------------------|-------------------------|
|----------------------|-------------------------|
|----------------------|-------------------------|
|----------------------|-------------------------|
|----------------------|-------------------------|


   Q  Q.        E E  E    +E   E  E  E  E E  E  +E
|----------------------|----------------------------|
|----------------------|----------------------------|
|-------------------10-|-(10)-10-10-10--------------|
|--8--8---------8-8----|----------------2-2--3--(3)-|
|
|  H       +E   Q    E    +H            Q    E  +E
|-12------(12)-15---17-|-(17)----------14---15-(15)-|
|----------------------|----------------------------|
|----------------------|----------------------------|
|----------------------|----------------------------|
|----------------------|----------------------------|
|----------------------|----------------------------|


   Q  Q.   E E E    +E  E Q.   E  E  E
|----------------|---------------------|
|----------------|---------------------|
|--7--7----7-7-9-|--(9)-9-9----9--9--9-|
|----------------|---------------------|
|
|  W                +H.           E  E
|-12-------------|-(12)----------12-10-|
|----------------|---------------------|
|----------------|---------------------|
|----------------|---------------------|
|----------------|---------------------|
|----------------|---------------------|


   Q  Q.   E E  E    +E   E  E  E Q   Q
|-----------------|------------------------|
|-----------------|------------------------|
|--3--3----3-3s10-|-(10)-10-10-10-9---9----|
|-----------------|------------------------|
|
|  W                 +H.              E  E
|-12--------------|-(12)-------------12-10-|
|-----------------|------------------------|
|-----------------|------------------------|
|-----------------|------------------------|
|-----------------|------------------------|
|-----------------|------------------------|


   Q  Q.   E E E    +E  E Q.   E  E  E    Q  Q.   E E  E    +H      E E  E  E
|----------------|---------------------|-----------------|--------------------|
|----------------|---------------------|-----------------|--------------------|
|--7--7----7-7-9-|--(9)-9-9----9--9--9-|--3--3----3-3s10-|-(10)----10---------|
|----------------|---------------------|-----------------|------------2--2--0-|
|
|  W                +H.           E  E    W                 +H.          E  E
|-12-------------|-(12)----------12-10-|-12--------------|-(12)---------12-10-|
|----------------|---------------------|-----------------|--------------------|
|----------------|---------------------|-----------------|--------------------|
|----------------|---------------------|-----------------|--------------------|
|----------------|---------------------|-----------------|--------------------|
|----------------|---------------------|-----------------|--------------------|


   Q  +Q.   E E  E    +E   E  E  E  E E  E  E
|------------------|--------------------------|
|------------------|--------------------------|
|--3--(3)---3-3s10-|-(10)-10-10-10-10---------|
|------------------|------------------2--2--0-|
|
|  W                  +H.                E  E
|-12---------------|-(12)---------------12-10-|
|------------------|--------------------------|
|------------------|--------------------------|
|------------------|--------------------------|
|------------------|--------------------------|
|------------------|--------------------------|


   Q  +Q.   E E  E    +E   E  E  E  E E  E  E
|------------------|--------------------------|
|------------------|--------------------------|
|--3--(3)---3-3s10-|-(10)-10-10-10-10---------|
|------------------|------------------2--2--0-|
|
|  W                  +H.                E  E
|-12---------------|-(12)---------------12-10-|
|------------------|--------------------------|
|------------------|--------------------------|
|------------------|--------------------------|
|------------------|--------------------------|
|------------------|--------------------------|


   +W            +W            +W            +W
|-------------|-------------|-------------|---------|
|-------------|-------------|-------------|---------|
|-------------|-------------|-------------|---------|
|--(0)--------|--(0)--------|--(0)--------|--(0)----|
|
|   ~~~~~~~~~~~~~~~~~~~~~~~~~~~~~~~~~~~~~~~~~~~~~
|   W            +W            +W            +W
|-(12)--------|-(12)--------|-(12)--------|-(12)----|
|-------------|-------------|-------------|---------|
|-------------|-------------|-------------|---------|
|-------------|-------------|-------------|---------|
|-------------|-------------|-------------|---------|
|-------------|-------------|-------------|---------|


   +W            +W            +W            +W
|-------------|-------------|-------------|---------|
|-------------|-------------|-------------|---------|
|-------------|-------------|-------------|---------|
|--(0)--------|--(0)--------|--(0)--------|--(0)----|
|
|   ~~~~~~~~~~~~~~~~~~~~~~~~~~~~~~~~~~~~~~~~~~~~~
|  +W            +W            +W            +W
|-(12)--------|-(12)--------|-(12)--------|-(12)----|
|-------------|-------------|-------------|---------|
|-------------|-------------|-------------|---------|
|-------------|-------------|-------------|---------|
|-------------|-------------|-------------|---------|
|-------------|-------------|-------------|---------|


   +W            +W            +W            +W
|-------------|-------------|-------------|---------*|
|-------------|-------------|-------------|---------*|
|-------------|-------------|-------------|---------*|
|--(0)--------|--(0)--------|--(0)--------|--(0)----*|
|
|   ~~~~~~~~~~~~~~~~~~~~~~~~~~~~~~~~~~~~~~~~~~~~~
|  +W            +W            +W            +W
|-(12)--------|-(12)--------|-(12)--------|-(12)----*|
|-------------|-------------|-------------|---------*|
|-------------|-------------|-------------|---------*|
|-------------|-------------|-------------|---------*|
|-------------|-------------|-------------|---------*|
|-------------|-------------|-------------|---------*|


Duration Legend
---------------
W - whole; H - half; Q - quarter; E - 8th; S - 16th; T - 32nd; X - 64th; a - acciaccatura
+ - note tied to previous; . - note dotted; .. - note double dotted
Uncapitalized letters represent notes that are staccato (1/2 duration)
Irregular groupings are notated above the duration line
Duration letters will always appear directly above the note/fret number it represents the
duration for.  Duration letters with no fret number below them represent rests.  Multi-
bar rests are notated in the form Wxn, where n is the number of bars to rest for.  Low
melody durations appear below the staff

Tablature Legend
----------------
 h   - hammer-on
 p   - pull-off
 b   - bend
 pb  - pre-bend
 r   - bend release (if no number after the r, then release immediately)
 /\  - slide into or out of (from/to "nowhere")
 s   - legato slide
 S   - shift slide
  - natural harmonic
[n]  - artificial harmonic
n(n) - tapped harmonic
 ~   - vibrato
 tr  - trill
 T   - tap
 TP  - trem. picking
 PM  - palm muting
\n/  - tremolo bar dip; n = amount to dip
 \n  - tremolo bar down
 n/  - tremolo bar up
/n\  - tremolo bar inverted dip
 =   - hold bend; also acts as connecting device for hammers/pulls
 <>  - volume swell (louder/softer)
 x   - on rhythm slash represents muted slash
 o   - on rhythm slash represents single note slash

Misc Legend
-----------
 |  - bar
||  - double bar
||o - repeat start
o|| - repeat end
*|  - double bar (ending)
 :  - bar (freetime)
 $  - Segno
 &  - Coda
Tempo markers -  = BPM(8/16=s8/s16), where s8 = swing 8ths, s16 = swing 16ths





Comments


Popular H.I.M tabs & chords
For You 2 Bass Tabs
Rip Out The Wings Of A Butterfly 3 Bass Tabs
Bury Me Deep Inside Your Heart Chords
Dying Song Chords
Join Me In Death 2 Chords
Sigilium Diaboli Tabs
The Funeral Of Hearts 3 Tabs
The Sacrament Intro Tabs
Wicked Game Tabs
Wings Of A Butterfly Intro Tabs


Song lyrics



↑ Back to top | Tablatures and chords are parodies/interpretations of the original songs. You may use it for private study, scholarship, research or language learning purposes only
© 2014 AZChords.com Contact us | Privacy policy | DMCA | Add/correct tabs | Request tabs | Top 50 tabs