» » »

Take It All Bass tabs (ver.2)

Artists:  A B C D E F G H I J K L M N O P Q R S T U V W X Y Z # 

Take It All Bass tabs (ver.2)

Hillsongs
Rating:
0/5 (0 votes)
Tabs too difficult? Try these video lessons and learn fast.
                This is the bass intro

E:-------------------------------------------------|
A:222-222-22211------------------------------------|
D:-------------11----------------------------------|
G:-------------------------------------------------|

Play that through out both verses

Then when you get to ....you my God i only ever give my all.
  you      i only ever give my all
E:44-------0000000--------------------------------
    my God
A:--22--------------------------------------------|
D:------------------------------------------------|
G:------------------------------------------------|

Chorus:
E:--------222222224444444400000000--------2222222---------|
A:22222222------------------------22222222-------44444444-|
D:--------------------------------------------------------|
G:--------------------------------------------------------|
musical that leads to bridge:
E:------------------------------------------------|
A:2222222222222224slidedown-----------------------|
D:------------------------------------------------|
G:------------------------------------------------|
Bridge:(running to the one who heals the blind)
E:--442200----4422----442200------------------|
A:44--------44----44--------------------------|
D:--------------------------------------------|
G:--------------------------------------------|

Music going back to chorus.
E:----------------------------------------------|
A:2222222222222--222-222-22211--222-222-22211---|
D:----------------------------11-------------11-|
G:----------------------------------------------|
            
Tabs too difficult? Try these video lessons and learn fast.


comments powered by Disqus
↑ Back to top | Tablatures and chords are parodies/interpretations of the original songs. You may use it for private study, scholarship, research or language learning purposes only