» » »

Hillsongs, Take It All Tabs (ver.3)

Artists:  A B C D E F G H I J K L M N O P Q R S T U V W X Y Z # 

Take It All Tabs (ver.3)

Hillsongs Tabs
Rating:
0/5 (0 votes)
Take It All lessons Tabs too difficult? Try these video lessons and learn fast
                original tab of take it all

----------------------|
-14--14-14-14-14-14---|
----------------------|
----------------------|
----------------------|
----------------------|

-----------------------------------|
-12--12-12-12-12-12--11--11-11-11--|
-----------------------------------|
-----------------------------------|
-----------------------------------|
-----------------------------------|


Followed by one of these three:
-14-14----14----14----|
-------11----11-------|
----------------------| (1st & 3rd time)
----------------------|
----------------------|
----------------------|

-12-12----12-----12---|
-------11----11-------|
----------------------| (2nd time)
----------------------|
----------------------|
----------------------|

---------(7)-(7)----------(5)-(5)-|
-(7)-(7)-(7)-(7)--(5)-(5)-(5)-(5)-|
-(7)-(7)----------(5)-(5)---------| (4th time,using
----------------------------------| harmonics)
----------------------------------|
----------------------------------|

In Hillsong's 'Mighty To Save' Version (no vid), play:
-----9---------------------9-11-|
------------12-------11---------|
--11-----11-------11------------|
9------9--------9--------9------|
--------------------------------|
--------------------------------|

-----9--------------------------|
------------12-------11b12r11---|
--11-----11------11----------11-|
9------9-------9----9-----------|
--------------------------------|
--------------------------------|

Bridge
Before the singing comes in, play
(United Live)--or----(Hillsong, no vid))----------|
---------------------12----14----16----17---------|
-4--6--8--9----------15b16-17b18-19b20-20b21------|
--------------------------------------------------|
-2--4--6--7---------------------------------------|
--------------------------------------------------|

When the singing comes in, play the chords
C# G#m F# E
C# G#m F#

Followed by a fill:
-------2-----------------------------------------|
-------------------------------0-------0---------|
-3b4r3---3b4r3---------------3---3---3-----------|
---------------------------4-------4-------------|
-(United Live)------or----(Hillsong, no vid)-----|
-------------------------------------------------|

C# G#m F# E
B/D#

For B/D#, play:
--------------|
--------------|
--8-----------|
--9-----------|
--6-----------|
--------------|

Un saludo para la batería de SinApuro: Chava, la freake, el orejitas, la tía
 cosas y sergio............
            

comments powered by Disqus
↑ Back to top | Hillsongs Tabs for Take It All. Lyrics for acoustic guitar and electric guitar. Tablatures and chords are parodies/interpretations of the original songs. You may use it for private study, scholarship, research or language learning purposes only