» » »

Take It All Tabs (ver.2)

Artists:  A B C D E F G H I J K L M N O P Q R S T U V W X Y Z # 

Take It All Tabs (ver.2)

Hillsongs
Rating:
0/5 (0 votes)

Hard to play? Try these video lessons and learn fast.
                My first tab so please rate it 5, and i'm 100% this is correct.
Guitar 2 ONLY!!! It's all I know
Thankx



VERSE 1:
Searching the world 
The lost will be found 
In freedom we live 
As one we cry out 
You carried the cross 
You died and rose again 
My God 
I’ll only ever give my all 

E|--------------------|
B|--------------------|
B|--------------------|
G|----------------88--|
D|-999--999--9998888--|
A|-999--999--9998866--|
E|-777--777--77766----|
                       Play x5 then

E|--------------------|
B|--------------------|
G|----------11111111--|
D|-666-666--22222222--|
A|-666-666--22222222--|
E|-444-444------------|
      
You sent Your Son 
You delivered us all 
It’s eternally heard 
I searched for truth 
And all I found was You 
My God 
I’ll only ever give my all 

______________________________________________

CHORUS:
E|-----------------------------------------|
B|-----------------------------------------|
G|-4-444444----------------------1-111111--|
D|-4-444444--4-444444--6-666666--2-222222--|
A|-2-222222--4-444444--6-666666--2-222222--|
E|-----------2-222222--4-444444------------|

E|----------------------------------|
B|----------------------------------|
G|-4-444444----------------------6--|
D|-4-444444--4-444444--6-666666--6--|
A|-2-222222--4-444444--6-666666--4--|
E|-----------2-222222--4-444444-----|

Jesus we’re living for Your Name 
We’ll never be ashamed of You 
Whoa o oh 
Our praise and all we are today 
Take take take it all 
Take take take it all 

_______________________________________________

Repeat VERSE 1 (You sent Your Son...) without the first part (searching the world...)

_______________________________________________

Repeat CHORUS and play TWICE!

_______________________________________________

BRIDGE:
E|-------------------------|
B|-------------------------|
G|-------------------------|
D|-4444--6666--8888--9999--|
A|-4444--6666--8888--9999--|
E|-2222--4444--6666--7777--|

________________________________________________


E|-------------------------------------------------------------------|
B|-------------------------------------------------------------------|
G|-666---------11---666----------666---------11-1--4444444444444444--|
D|-666--6--44--22---666--6--44---666--4--44--22-2--4444444444444444--|
A|-444--6--44--22---444--6--44---444--4--44--22-2--2222222222222222--|
E|------4--22------------4--22--------6--22--------------------------|
                                                   Play x2

Running to the One 
Who heals the blind 
Following the shining light 
In Your hands 
The power to save the world 
In my life 

Running to the One 
Who heals the blind 
Following the shining light 
In Your hands 
The power to save the world 
In my life 

________________________________________________

Bass Guitar Interlude

G|----------------------------------------|
D|----------------------------------------|
A|----------------66------------------66--|
E|-777--777--77766-----777--777--77766----|

________________________________________________

small CHORUS:
E|-----|
B|-----|
G|--6--|     Play only on the
D|--6--|     first "Take"
A|--4--|
E|-----|
            
Jesus we’re living for Your Name 
We’ll never be ashamed of You 
Whoa o oh 
Our praise and all we are today 
Take take take it all 
Take take take it all 

________________________________________________

Then play CHORUS twice. At the last "all" play

E|-----|
B|-----|
G|-----|
D|-99--|
A|-99--|
E|-77--|




That's it!!! Enjoi and have fun, but please don't show off, lol
THANX Kuya Juan!
            
Hard to play? Try these video lessons and learn fast. | Correct




comments powered by Disqus
↑ Back to top | Tablatures and chords are parodies/interpretations of the original songs. You may use it for private study, scholarship, research or language learning purposes only