>
 >
Revolution 1

Revolution 1 Guitar Tabs

Hillsongs - Revolution 1 chords, tabs, tablatures, lyrics

Guitar lessons | Add/correct | Request | Top 50 tabs Artists:  A B C D E F G H I J K L M N O P Q R S T U V W X Y Z 0-9

Revolution 1 Guitar Tabs – Hillsongs

CD, Sheet music, Poster

Do you like Revolution 1? Share with your friends now
Bass TabsChordsTabsTabs v2
-------------------------------------------------------------------------------
                             REVOLUTION - HILLSONG UNITED
-------------------------------------------------------------------------------


Intro: (play it twice; for each chord, strum 8 times and follow the song beat)

|-9-  -7-  -6-  -7-  -7-  -6-  -4-  -7-
|-7-  -7-  -7-  -7-  -7-  -7-  -3-  -6-
|-8-  -8-  -8-  -8-  -6-  -6-  -4-  -7-
|-9-  -9-  -8-  -9-  -x-  -x-  -2-  -5-
|-7-  -7-  -6-  -7-  -x-  -x-  -x-  -x-
|-7-  -7-  -6-  -7-  -x-  -x-  -x-  -x-

verse:

|-x-x-  |-x-x---------------------------------------------------------------.)
|-x-x-  |-8-8---------------------------------------------------------------.)
|-x-x-  |-8-8---------------------------------------------------------------.)
|-x-x-   |-6-6--------------------------------------------------------------.)
|-x-x-  |-x-x-             (one generation.... ....salvation...here we go..-.)
|-x-x-  |-x-x---------------------------------------------------------------.)
play these 4 strokes 8 times. in accordance to the song.

|-x---x---x---x---|
|-x---x---x---x---|
|-6---8---10--11--|
|-6---8---10--11--|         play these chords twice. 'after here we go'
|-4---6---8---9---|
|-x---x---x---x---|

|-x---x---x---x---|
|-x---x---x---x---|
|-x---x---x---x---|
|-9---9---9---9---|
|-9---9---9---9---|
|-7---6---7---9---|

chorus:

|-x---x---x---x---   -x---x--/x---|
|-x---x---x---x---   -x---x--/x---|
|-x---4---x---8---   -x---4--/8---|
|-4---4---6---8---   -4---4--/8---|
|-4---2---6---6---   -4---2--/6---|
|-2---x---4---x---   -2---x--/x---|

verse: (once thru)

chorus: (twice)


Instrumental: (play it twice)

|------9-9-9-9-------7-7-7-7-------6-6-6-6-------7-7-7-7-|
|---7-7-----------7-7-----------7-7-----------7-7--------|
|-8-8----------8-8-----------8-8-----------8-8-----------|
|--------------------------------------------------------|
|--------------------------------------------------------|
|--------------------------------------------------------|

|-------7-7-7-7-------6-6-6-6-------4-4-4-4-------7-7-7-7-|
|----7-7-----------7-7-----------6-6-----------6-6--------|
|-6-6-----------6-6-----------6-6-----------7-7-----------|
|---------------------------------------------------------|
|---------------------------------------------------------|
|---------------------------------------------------------|


Bridge: (play it twice)
--------------------------------|
--------------------------------|
-------6-6-6-6-------6-6-6-6----|
----4-4-----------4-4-----------|
-6-6-----------6-6--------------|
--------------------------------|

--------------------------------|
--------------------------------|
-------6-6-6-6--------6-6-6-6---|
----4-4------------4-4----------|
-2-2-----------2-2--------------|
--------------------------------|

--------------------------------|
--------------------------------|
-------6-6-6-6-------6-6-6-6----|
----4-4-----------4-4-----------|
--------------------------------|
-6-6-----------6-6--------------|

--------------------------------|
--------6-6---------------------|
----6-6-----6-6---------7-7-----|
--------------------8-8-----8-8-|
-4-4------------5-5-------------|
--------------------------------|

(play this twice after the above part to return to chorus)

---------------------------------|
-------------4-4-------------4-4-|
---------4-4-------------4-4-----|
-4-4-6-6---------4-4-6-6---------|
---------------------------------|
---------------------------------|

chorus


[end]


thank you. its quite a diffiult song to play and to tab ,but after you've mastered it. 
be fun :) PRAISE THE LORD ! :)

Ps: anything wrong with the tabs. please mail it to me ok? :)


| /  slide up
| \  slide down
| h  hammer-on
| p  pull-off
| ~  vibrato
| +  harmonic
| x  Mute note
===============================================================================





Comments


Popular Hillsongs tabs & chords
Healer 1 Chords
Hes Got The Whole World In His Hands Chords
Magnificent 2 Chords
Oceans Will Part 1 Chords
With Everything 3 Chords
All For Love Intro Tabs
As The Deer Tabs
Kingdom Come Tabs
Better Is One Day Ukulele
Father Of Creation Ukulele


Song lyrics



↑ Back to top | Tablatures and chords are parodies/interpretations of the original songs. You may use it for private study, scholarship, research or language learning purposes only
© 2014 AZChords.com Contact us | Privacy policy | DMCA | Add/correct tabs | Request tabs | Top 50 tabs