» » »

Hillsongs, Revolution Bass tabs (ver.1)

Artists:  A B C D E F G H I J K L M N O P Q R S T U V W X Y Z # 

Revolution Bass tabs (ver.1)

Hillsongs Tabs
 Rating:
4/5 (4 votes)
Revolution lessons Tabs too difficult? Try these video lessons and learn fast
1
                Hillsong Untied
Revolution
United We Stand
2006

Bass

Tuning: Standard EADG

Intro: 0:14
G|-------------------------------------------------------------|
D|-------------------------------------------------------------|
A|-6-6-6-6-6-6-6-6-6-6-6-6/8-8-9-9-9-9-9-9-9-9-4-4-4-4-5-5-5-5-|
E|-------------------------------------------------------------|


Verses: This is very fast
G|---------8-8-8-8-----------------|---------------------------------|
D|-----------------8-8-8-8-9-9-9-9-|---------------------------------|
A|-6-6-6-6-------------------------|-9-9-9-9-9-9-9-9-----------------| (x2)
E|---------------------------------|-----------------2-2-2-2-2-2-2-2-|
              x2                                   x2


Refrain:
G|-----------------------------|
D|-----------------------------|
A|---------11-11-11-11\2-2-2-2-|
E|-4-4-4-4---------------------|


Chorus:
G|--------------------------------8-------------------------------------|
D|----------------------------------8-----------------------------------|
A|-----1/9-9-2-2-2-2--------6-6-6-----6-----1/9-9-9---------11-11-11-11-|
E|-2-2--------------4-4-2/4-------------2-2---------4-4-4-4-------------|


Bridge: Use your sliding technique here
G|---------|--------|
D|---------|--------|
A|-1/6\1---|----1/9-| (x2)
E|-------2-|-2------|
     x4        x4
then
G|---------|---------|---------|-----------------|
D|---------|---------|---------|-----------------|
A|-6-6-6-6-|-2-2-2-2-|-1-1-1-1-|-4-4-4-4-5-5-5-5-|
E|---------|---------|---------|-----------------|
      x2        x2        x2
then
G|---------------------------4-|
D|-------------------------4---|
A|---------11-11-11-11\2-2-----|
E|-4-4-4-4---------------------|


(Repeat Chorus twice)


End On
G|---
D|---
A|-9-
E|---
            
Submit corrections

comments powered by Disqus
↑ Back to top | Hillsongs Bass for Revolution. Lyrics for acoustic guitar and electric guitar. 1 Tablatures and chords are parodies/interpretations of the original songs. You may use it for private study, scholarship, research or language learning purposes only