>
 >
Revolution

Revolution Guitar Tabs

Hillsongs - Revolution chords, tabs, tablatures, lyrics

Guitar lessons | Add/correct | Request | Top 50 tabs Artists:  A B C D E F G H I J K L M N O P Q R S T U V W X Y Z 0-9

Revolution Guitar Tabs – Hillsongs

CD, Sheet music, Poster

Do you like Revolution? Share with your friends now
Bass TabsChordsTabsTabs v2
Hillsong United
United We Stand
2006

Revolution Lead

Tuning: Standard

x means palm mute
/ means slide up
\ means slide down
h means hammer
p means pull off

Intro: x2
e|-9-9-9-9--7-7-7-7--6-6-6-6--7-7-7-7--7-7-7-7--6-6-6-6--4-4-4-4--7-7-7-7-|
B|-7-7-7-7--7-7-7-7--7-7-7-7--7-7-7-7--7-7-7-7--7-7-7-7--7-7-7-7--6-6-6-6-|
G|------------------------------------------------------------------------|
D|------------------------------------------------------------------------|
A|------------------------------------------------------------------------|
E|------------------------------------------------------------------------|


Verses
e|-------|-----------|
B|-------|-----------|
G|-x-x-8-|-6/8/10/11-|
D|-x-x-x-|-x/x/-x/-x-|
A|-x-x-6-|-4/6/-8/-9-|
E|-------|-----------|
    x4        x2


Refrain:
e|---------------------------------|
B|---------------------------------|
G|---------------------------------|
D|-6-6-6-6-6-6-6-7/9-9-9-9-9-9-9-9-|
A|-6-6-6-6-6-6-6-8/9-9-9-9-9-9-9-9-|
E|-4-4-4-4-4-4-4-6/7-7-7-7-7-7-7-7-|


Chorus:
e|-------------------------------------------------------------|
B|-------------------------------------------------------------|
G|---------4-4-4-4---------8-8-8-8---------4-4-4-4-------------|
D|-4-4-4-4-4-4-4-4-6-6-6-6-8-8-8-8-4-4-4-4-4-4-4-4-6-x-x-x-x-x-|
A|-4-4-4-4-2-2-2-2-6-6-6-6-6-6-6-6-4-4-4-4-2-2-2-2-x-x-x-x-x-x-|
E|-2-2-2-2---------4-4-4-4---------2-2-2-2---------4-x-x-x-x-x-|


(Repeat Intro Once)


Interlude: at 1:48 before bridge, this is very fast, use up down alternate and use a 
this is very difficult for the begginers.

e|---------9-9-9-9---------7-7-7-7---------6-6-6-6---------7-7-7-7----|
B|-----7-7-------------7-7-------------7-7-------------7-7------------|
G|-8-8-------------8-8-------------8-8-------------8-8----------------|
D|--------------------------------------------------------------------|
A|--------------------------------------------------------------------|
E|--------------------------------------------------------------------|
then                                                                |-(x2)
e|---------7-7-7-7---------6-6-6-6---------4-4-4-4---------7-7-7-7----|
B|-----7-7-------------7-7-------------6-6-------------6-6------------|
G|-8-8-------------8-8-------------6-6-------------7-7----------------|
D|--------------------------------------------------------------------|
A|--------------------------------------------------------------------|
E|--------------------------------------------------------------------|


Bridge:
e|-------|-----------|
B|-------|-----------|
G|-3/8\3-|-6/8/10/11-|
D|-x/x\x-|-x/x/-x/-x-| (x2)
A|-1/6\1-|-4/6/-8/-9-|
E|-------|-----------|
    x4       x2
then
e|-----------------|-----------------|-----------------|--------------------------|
B|-----------------|-----------------|-----------------|---------6-6----------6-6-|
G|---------6-6-6-6-|---------6-6-6-6-|---------6-6-6-6-|-----6-6----------7-7-----|
D|-----4-4---------|-----4-4---------|-----4-4---------|-6-6----------8-8---------| (x2)
A|-6-6-------------|-----------------|-----------------|--------------------------|
E|-----------------|-7-7-------------|-6-6-------------|--------------------------|
        x2                x2                 x2                      x2
then
e|-----------------|-----------------|
B|-----------------|-----------------|
G|---------4-4-4-4-|---------4-4-4-4-|
D|-----6-6---------|-----4-4---------|
A|-----------------|-2-2-------------|
E|-4-4-------------|-----------------|
       x2                  x2

(Repeat Chorus twice)

End on

e|-----
B|-----
G|-11--
D|-11--
A|--9--
E|-----





Comments


Popular Hillsongs tabs & chords
Break Free Bass Tabs
One Way Bass Tabs
Everyday 1 Chords
God Is Able Chords
Heaven 1 Chords
Only One Chords
Dwell In Your House Tabs
I Can Only Imagine Intro Tabs
Take It All Intro Tabs
Consume Me Ukulele


Song lyrics



↑ Back to top | Tablatures and chords are parodies/interpretations of the original songs. You may use it for private study, scholarship, research or language learning purposes only
© 2014 AZChords.com Contact us | Privacy policy | DMCA | Add/correct tabs | Request tabs | Top 50 tabs