» » »

Hillsongs, From God Above Tabs (ver.3)

Artists:  A B C D E F G H I J K L M N O P Q R S T U V W X Y Z # 

From God Above Tabs (ver.3)

Hillsongs Tabs
 Rating:
4/5 (4 votes)
From God Above lessons Tabs too difficult? Try these video lessons and learn fast
                Intro:
e|-1-1---1-1---1-1---3-3----1-1---1-1---1-1---1-1--|
B|-1-1---2-2---3-3---4-4----1-1---2-2---3-3---3-3--|
G|-1-1---1-1---3-3---3-3----1-1---1-1---3-3---3-3--| 2X
D|-------------3-3----------------------3-3---3-3--|
A|-------------------------------------------------|
E|-------------------------------------------------|

Verse:
e|-1-1---1-1---1-1---3-3----1-1---1-1---1-1---1-1--|
B|-1-1---2-2---3-3---4-4----1-1---2-2---3-3---3-3--|
G|-1-1---1-1---3-3---3-3----1-1---1-1---3-3---3-3--| 2X
D|-------------3-3----------------------3-3---3-3--|
A|-------------------------------------------------|
E|-------------------------------------------------|

Pre Chorus:
And You Saved the the day...
e|--------1-----4----4-------1-----------4
B|--------1-----4----4-------1-----------4
G|--------2-----5----6-------3-----------6  2x
D|--------3-----6----6-------3-----------6
A|--------3-----6----4-------1-----------4
E|--------1-----4----4-------1-----------4

CHORUS:
e|-4----6----8----4----8----6----3----4----4----|
B|-4----8----10---6----10---8----4----6----4----|
G|-5----8----10---6----10---8----5----6----5----|
D|-6----8----10---6----10---8----5----6----6----|
A|-6----6----8----4----8----6----3----4----6----|
E|-4----6----8----4----8----6----3----4----4----|

before bridge:
e|------------------------------------------------------------|
B|------------------------------------------------------------|
G|---------17----------------------15-------------------------|
D|------------------------13-15-18-----17-18------------------|
A|------------------------------------------------------------|
E|------------------------------------------------------------|

BRIDGE:
   I'll stand on the word... We'll be singing
e|-4------                ---4----------------                        
B|-6------                ---4---------13/12--                    
G|-6------                ---5---------13/12--                           
D|-6------                ---6----------------                         
A|-4------                ---6----------------
E|-4------                ---4----------------                          

Chorus 2x

Ending:
e|-1-1---1-1---1-1---3-3----1-1---1-1---1-1---1-1--|
B|-1-1---2-2---3-3---4-4----1-1---2-2---3-3---3-3--|
G|-1-1---1-1---3-3---3-3----1-1---1-1---3-3---3-3--| 
D|-------------3-3----------------------3-3---3-3--|
A|-------------------------------------------------|
E|-------------------------------------------------|

e|-1-1---1-1---1-1---3-3----1-1---1-1---1-1-1---|
B|-1-1---2-2---3-3---4-4----1-1---2-2---3-3-3---|
G|-1-1---1-1---3-3---3-3----1-1---1-1---3-3-3---| 
D|-------------3-3----------------------3-3-3---|
A|----------------------------------------------|
E|----------------------------------------------|

grory to God
            
Submit corrections

comments powered by Disqus
↑ Back to top | Hillsongs Tabs for From God Above. Lyrics for acoustic guitar and electric guitar. Tablatures and chords are parodies/interpretations of the original songs. You may use it for private study, scholarship, research or language learning purposes only