» » »

From God Above Tabs (ver.2)

Artists:  A B C D E F G H I J K L M N O P Q R S T U V W X Y Z # 

From God Above Tabs (ver.2)

Hillsongs
Rating:
0/5 (0 votes)

Hard to play? Try these video lessons and learn fast.
                Hillsong United
150 bpm

The first guitar plays this part with CAPO 1 and harmonics are relative to capo. This 
that when it says <12> you play the harmonic on the 13th fret.

Guitar 1[Capo 1]
e|<12><12><12><12>-<12><12><12><12>-<12><12><12><12>---------<7>-----------|
B|--------------------------------------------------<7><7><7>--------------|
G|-------------------------------------------------------------------------|
D|-------------------------------------------------------------------------|
A|-------------------------------------------------------------------------|
E|-------------------------------------------------------------------------|

Guitar 2
e|-------------------------------------------------------------------------|
B|-------------------------------------------------------------------------|
G|-------------------6---6------------3---3----------8--8------------------|
D|-3---3-------------6---6------------3---3----------8--8------------------|
A|-3---3-------------4---4------------1---1----------6--6------------------|
E|-1---1-------------------------------------------------------------------|

Guitar 1[Capo 1]
e|<12><12><12><12>-<12><12><12><12>-<12><12><12><12>--------9-10-----------|
B|---------------------------------------------------9--10-----------------|
G|-------------------------------------------------------------------------|
D|-------------------------------------------------------------------------|
A|-------------------------------------------------------------------------|
E|-------------------------------------------------------------------------|

Guitar 2
e|-------------------------------------------------------------------------|
B|-------------------------------------------------------------------------|
G|-------------------6---6------------3---3----------3--3--3--3------------|
D|-3---3-------------6---6------------3---3----------3--3--3--3------------|
A|-3---3-------------4---4------------1---1----------1--1--1--1------------|
E|-1---1-------------------------------------------------------------------|

At the end of the verses:
e|----------|-----------8----------------------------------------------------|
B|----------|-------9-------9------------------------------------------------|
G|--8h10-8--|---10-----------------------------------------------------------|
D|----------|----------------------------------------------------------------|
A|----------|----------------------------------------------------------------|
E|----------|----------------------------------------------------------------|


Small Solo

Guitar 3
e|---------------------------------------------------------------------------|
B|--10/12--------8-10-7------------------------------------------------------|
G|----------7-9--------9-----------------------------------------------------|
D|---------------------------------------------------------------------------|
A|---------------------------------------------------------------------------|
E|---------------------------------------------------------------------------|
            
Hard to play? Try these video lessons and learn fast. | Correct




comments powered by Disqus
↑ Back to top | Tablatures and chords are parodies/interpretations of the original songs. You may use it for private study, scholarship, research or language learning purposes only