» » »

From God Above Tabs (ver.1)

Artists:  A B C D E F G H I J K L M N O P Q R S T U V W X Y Z # 

From God Above Tabs (ver.1)

Hillsongs
Rating:
0/5 (0 votes)

Hard to play? Try these video lessons and learn fast.
                
intro and verses
guitar 1 (A): 

e|--<13><13><13><13><13><13>------------------15h16-15--------|
B|---------------------------14-14-14-14-14-------------15----|
G|------------------------------------------------------------|
D|------------------------------------------------------------|
A|------------------------------------------------------------|
E|------------------------------------------------------------|


e|--<13><13><13><13><13><13>-----------------------|
B|------------------------------------13-14--------|
G|-----------------------------12h13---------------|
D|-------------------------------------------------|
A|-------------------------------------------------|
E|-------------------------------------------------|


guitar 2:

e|-----------------|
B|-----------------|
G|------6------8---|
D|--3---6---8--8---|
A|--3---4---8--6---|
E|--1-------6------|


You made us all in Your image...


e|--<13><13><13><13><13><13>-----------------------|--11h13--11-----|
B|------------------------------------13-14--------|----------------|
G|-----------------------------12h13---------------|----------------|
D|-------------------------------------------------|----------------|
A|-------------------------------------------------|----------------|
E|-------------------------------------------------|----------------|
at the end of verses
guitar: 3
e|----11h13-11-11h13-11------|
B|---------------------------|

chorus:

e|--------------------------|
B|--------------------------|
G|--------8-------6-----6---|
D|----6---8---3---6--3--6---|
A|----6---6---3---4--3--4---|
E|----4-------1------1------|

now i live for you
e|------------|
B|------------|
G|----5--6----|
D|----5--6----|
A|----3--4----|
E|------------|


Small Solo

Guitar 3
e|----------------------------------------------|
B|--11--13--------------9----11-----8-----------|
G|-----------8----10-------------------8--------|
D|----------------------------------------------|
A|----------------------------------------------|
E|----------------------------------------------|


end...

guitar 1 (A): 

e|--<13><13><13><13><13><13>------------------15h16-15--------|
B|---------------------------14-14-14-14-14-------------15----|
G|------------------------------------------------------------|
D|------------------------------------------------------------|
A|------------------------------------------------------------|
E|------------------------------------------------------------|


e|--<13><13><13><13><13><13>-----------------------|
B|------------------------------------13-14--------|
G|-----------------------------12h13---------------|
D|-------------------------------------------------|
A|-------------------------------------------------|
E|-------------------------------------------------|


guitar 2:

e|-----------------|
B|-----------------|
G|------6------8---|
D|--3---6---8--8---|
A|--3---4---8--6---|
E|--1-------6------|
            
Hard to play? Try these video lessons and learn fast. | Correct




comments powered by Disqus
↑ Back to top | Tablatures and chords are parodies/interpretations of the original songs. You may use it for private study, scholarship, research or language learning purposes only