» » »

Hillsongs, Came To My Rescue Bass tabs (ver.2)

Artists:  A B C D E F G H I J K L M N O P Q R S T U V W X Y Z # 

Came To My Rescue Bass tabs (ver.2)

Hillsongs Tabs
Rating:
0/5 (0 votes)
Came To My Rescue lessons Tabs too difficult? Try these video lessons and learn fast
                Hey, this is my first tab ever!?

I've listened to this incredible song, and over and over again I've been amazed when 
hearing this bass "solo".
So I thought it was time for me to learn it, and so I did.


So I hope you'll enjoy this tab, it should be correct if I haven't done any mistakes in 
the tab!



G|------2-0-----------2--------2-0-----------------|
D|----2-----2-0-----2--------2-----2-0-------------|
A|0-0-----------0-0------0-0-----------0-0-2-------|
E|-------------------------------------------------|


G|-------------------------------------------------|
D|-------------------------------------------------|
A|3-3-2-3-5-333----3-3-2-3-5-333-5-----------------|
E|--------------3----------------------------------|



G|------2-0-----------2--------2-0------------------------|
D|----2-----2-0-----2--------2-----2-0--------------------|
A|0-0-----------0-0------0-0-----------0------------------|
E|--------------------------------------3333333-11111111--|






Peace out! =D
            

comments powered by Disqus
↑ Back to top | Hillsongs Bass for Came To My Rescue. Lyrics for acoustic guitar and electric guitar. Tablatures and chords are parodies/interpretations of the original songs. You may use it for private study, scholarship, research or language learning purposes only