» » »

Hillsongs, Came To My Rescue Bass tabs (ver.3)

Artists:  A B C D E F G H I J K L M N O P Q R S T U V W X Y Z # 

Came To My Rescue Bass tabs (ver.3)

Hillsongs Tabs
Rating:
0/5 (0 votes)
Came To My Rescue lessons Tabs too difficult? Try these video lessons and learn fast
                Hillsong United
Came To The Rescue
United We Stand
2006

Bass

Tuning: Standard

Intro:
G|-5-5-5-5-5-5-7\10-10\7-7-7-7/12-12---------------------------------|
D|-----------------------------------7-7-7-7-7-7-7-7-----------------|
A|---------------------------------------------------8-8-8-8-8-8-8-8-|
E|-------------------------------------------------------------------|
then
G|-5-5-5-5-5-5-7\4-4\7-7-7-7/12-12-9-9-9-9-9-9-9-9-10-10-10-10-10-10-10-10-10-|
D|----------------------------------------------------------------------------|
A|----------------------------------------------------------------------------|
E|----------------------------------------------------------------------------|


Verses:
G|-5-5-5-5-5-5-5-5-12-12-12-12-12-12-12-12-2-2-2-2-2-2-2-2-----------------|
D|---------------------------------------------------------3-3-3-3-3-3-3-3-|
A|-------------------------------------------------------------------------|
E|-------------------------------------------------------------------------|
then
G|-5-5-5-5-5-5-5-5-12-12-12-12-12-12-12-12---------------------------------|
D|-----------------------------------------2-2-2-2-2-2-2-2-3-3-3-3-3-3-3-3-|
A|-------------------------------------------------------------------------|
E|-------------------------------------------------------------------------|


Chorus 1:
G|----------|
D|----------|
A|-3(hold)--
E|----------


Chorus 2:
G|-----------------------------------------------------------------|
D|-----------------------------------------------------------------|
A|-3-3-3-3-3-3-3-3-2-2-2-2-2-2-2-2-0-0-0-0-0-0-0-0-----------------| (x2)
E|-------------------------------------------------1-1-1-1-1-1-1-1-|


Bridge:
G|-------------------------------------------------------------------|
D|-------------------------------------------------------------------|
A|-0-0-0-0-0-0-0-0-0-0-0-0-0-0-2-2-3-3-3-3-3-3-3-3-3-3-3-3-3-3-2-2---|
E|-------------------------------------------------------------------|
then                                                                |-(x2)
G|-------------------------------------------------------------------|
D|-------------------------5-5-2-2-3-3-3-3-3-3-3-3-3-3-3-3-3-3-2-5---|
A|-0-0-0-0-0-0-0-0-0-0-0-0-------------------------------------------|
E|-------------------------------------------------------------------|
then


In my life be lifted high... at 3:48
G|------------|-----|-----------------5---------------------|
D|------------|-----|---------------5---------------5-------|
A|-0-0-7/10\7-|-2-2-|-3---3/5\3-3-3-----3---3/5\3-3---3/7\2-|
E|------------|-----|---3-----------------3-----------------|
       x3
then
G|------------|-----|-----------------------------7-8-|
D|------------|-----|-----------------3-3-3-3-3-3-----|
A|-0-0-7/10\7-|-----|-------------3-3-----------------|
E|------------|-3-0-|-1-1-1-1-1-1---------------------|
then
G|------------|-----|-----------------5---------------------|
D|------------|-----|---------------5---------------5-------|
A|-0-0-7/10\7-|-2-2-|-3---3/5\3-3-3-----3---3/5\3-3---3/7\2-|
E|------------|-----|---3-----------------3-----------------|
then
G|------------|-----|---------|
D|------------|-----|---------|
A|-0-0-7/10\7-|-----|---------|
E|------------|-3-0-|-1(Hold)-|


Last Chorus:
G|-2/5----|
D|--------|
A|--------|
E|--------|
            

comments powered by Disqus
↑ Back to top | Hillsongs Bass for Came To My Rescue. Lyrics for acoustic guitar and electric guitar. Tablatures and chords are parodies/interpretations of the original songs. You may use it for private study, scholarship, research or language learning purposes only