» » »

Hillsongs, Came To My Rescue Tabs (ver.2)

Artists:  A B C D E F G H I J K L M N O P Q R S T U V W X Y Z # 

Came To My Rescue Tabs (ver.2)

Hillsongs Tabs
Rating:
0/5 (0 votes)
Came To My Rescue lessons Tabs too difficult? Try these video lessons and learn fast
                Came To My Rescue
Hillsong United

Lead Guitar Tab:
Enjoy!

 Intro and Verse: 

 e|--------|-3--------5--|-3------|----------------| 
 B|-5------|-3-(x5)--3-3-|--------|-6-(x4)-6-6-6-6-| 
 G|-5-(x8)-|--------5----|-5-(x8)-|-5------4-5-4-5-| 
 D|--------|-------------|--------|----------------| 
 A|--------|-------------|--------|----------------| 
 E|--------|-------------|--------|----------------| 
   C . . . . . G . . . . . Am7 . . . F 


 Bridge: 

 e|------------------| 
 B|-13------12-------| 
 G|-12-(x4)-12-(x4)--|(x3) 
 D|-10------10-------| 
 A|------------------| 
 E|------------------| 
 Am, Am, C 

 e|---------------------| 
 B|-13--13------13------| 
 G|-12--10-(x4)-9--(x3)-| 
 D|-10--10------10------| 
 A|---------------------| 
 E|---------------------| 
 C 

 e|------------------| 
 B|-13------12-------| 
 G|-12-(x4)-12-(x4)--|(x2) 
 D|-10------10-------| 
 A|------------------| 
 E|------------------| 
 Am, Am 

 e|---------------------------------------------| 
 B|-13------------------------------------------| 
 G|-10-(x4)-------------------------------------|(x2) 
 D|-10------------------------------------------| 
 A|---------------------------------------------| 
 E|---------------------------------------------| 
 F
            
Submit corrections

comments powered by Disqus
↑ Back to top | Hillsongs Tabs for Came To My Rescue. Lyrics for acoustic guitar and electric guitar. Tablatures and chords are parodies/interpretations of the original songs. You may use it for private study, scholarship, research or language learning purposes only