» » »

Follow The Son Tabs (ver.2)

Artists:  A B C D E F G H I J K L M N O P Q R S T U V W X Y Z # 

Follow The Son Tabs (ver.2)

Hillsong London
Rating:
0/5 (0 votes)

Hard to play? Try these video lessons and learn fast.
                
Intro-Verse:
------------------------------------|
------------------------------------|
------------------------------------|
------------------------------------|
-7-7-5-5-7-7-------------5-5-5-5----|
-------------5-5-3-3-3-3------------|

Verse Riff II
------------------------------------|
------------------------------------|
-4-4-----4-4------------------------|
-----7-7-----------------7-7-7-7----|
-------------7-7-5-5-5-5------------|
------------------------------------|

Prechorus
------------------------------------|
-8-(keep strumming)-----------------|
-7----------------------------------|
------------------------------------|
------------------------------------|
------------------------------------|

Bridge I
-------------------------------------|
-------------------------------------|
-9-9--12-12--16-16--14-14------------|
-------------------------------------|(repeat x3,
-7-7--10-10--14-14--12-12------------|then end on
-------------------------------------|the 1st note)

Bridge II Guitar I (two guitars play concurrently)
-----------------|-----------------------------|
-8-8-7-10-10-(x2)|-8-8-8-8-8--7-7-7-7-7-10-10--|
-7-7-7-7--7------|-7-7-7-7-7--7-7-7-7-7-7--7---|(x2)
-----------------|-----------------------------|
-----------------|-----------------------------|
-----------------|-----------------------------|

Bridge II Guitar II
-----------------|-------------------|
-----------------|-------------------|
---------5-5-4-4-|---------5-5-7-7---|
-----2-2---------|-----2-2-----------|
-3-3-------------|-3-3---------------|
-----------------|-------------------|

-------------------------|--------------------------|
-------------------------|--------------------------|
-----------5-5-5-5-4-4-4-|-----------5-5-5-5-5-7-7--|
-----2-2-2---------------|-----2-2-2----------------|(x2)
-3-3---------------------|-3-3----------------------|
-------------------------|--------------------------|
            
Hard to play? Try these video lessons and learn fast. | Correct




comments powered by Disqus
↑ Back to top | Tablatures and chords are parodies/interpretations of the original songs. You may use it for private study, scholarship, research or language learning purposes only