» » »

Hillsong London, Lord Of All Bass tabs (ver.1)

Artists:  A B C D E F G H I J K L M N O P Q R S T U V W X Y Z # 

Lord Of All Bass tabs (ver.1)

Hillsong London Tabs
 Rating:
4.5/5 (8 votes)
Lord Of All lessons Tabs too difficult? Try these video lessons and learn fast
                -------------------------------------------------------------------------------
	               LORD OF ALL – Hillsong London
-------------------------------------------------------------------------------


Tuning: Standard

Intro:

G|---------------------------------|---------------------------------|
D|---------------------------------|-------------------------8-6---6-|
A|---------6-8-------------6-8-----|---------6-8-----------------8---|
E|-1-1-4-6-----6-8-1-1-4-6-----6-8-|-1-1-4-6-----6-8-1-1-4-6---------|(x3)

G|--------------------------------|----------------------13-------------------
D|--------------------------------|-----------------15-15---15-15-15-15-13-13-
A|--------6-8-------------6-8-----|---------6-8-------------------------------
E|1-1-4-6-----6-8-1-1-4-6-----6-8-|-1-1-4-6-----6-8---------------------------

G|----------|--------------|--------------|--------------|--------------|
D|-13-13-15-|--------------|-666666666666-|--------------|--------------|
A|----------|-888888888888-|--------------|-444444444444-|-111111111111-|
E|----------|--------------|--------------|--------------|--------------|

Verse:

G|-----------------|-----------------|-----------------|-----------------|
D|-----------------|-----------------|-----------------|-----------------|
A|-888888888888888-|-----------------|4444444444444444-|1111111111111111-|
E|-----------------|4444444444444444-|-----------------|-----------------|

Pre-Chorus:

G|-----------------------|
D|-----------------------|
A|---1-1/6~-------3-3/8~-|
E|-4--------7-4-6--------|

Chorus:

G|--------------------|------------------|------------------|-----------------|
D|--------------------|------------------|------------------|-----------------|
A|-44444444-----------|66666666-88888888-|44444444-66666666-|-----------------|
E|----------444444444-|------------------|------------------|4444444444444444-|

G|--------------------|------------------|------------------|-----------------|
D|--------------------|------------------|---68------68-----|-----------------|
A|-44444444-----------|66666677-88888888-|-------68------68-|-4—-----4/11~----|
E|----------444444444-|------------------|-66--66--66--66---|-----------------|

Verse
Pre-Chorus
Chorus

Bridge:

G|------------------|-----------------|-----------------|--------6-6--66--|
D|------------------|-----------------|-----------------|-------6-6-66--6-|
A|-8888888888888888-|6666666666666666-|5555555555555555-|4444444----------|
E|------------------|-----------------|-----------------|-----------------|(x3)

Pre-Chorus (x2)
Chorus (x2)

And that’s all... Hope you like my tab!
Btw, I’m not 100% sure about the last part of the intro... anybody got some idea please 
Let me know and I will update this tab! Thank you and God bless! >.<

Special Thanks to Zechariah Gills for correcting my intro. =)

| /  slide up
| \  slide down
| h  hammer-on
| p  pull-off
| ~  vibrato
| +  harmonic
| x  Mute note
===============================================================================
            
Submit corrections

comments powered by Disqus
↑ Back to top | Hillsong London Bass for Lord Of All. Lyrics for acoustic guitar and electric guitar. Tablatures and chords are parodies/interpretations of the original songs. You may use it for private study, scholarship, research or language learning purposes only